PrimaNota.ru - самый крупный в мире бесплатный архив песенных текстов, аккордов, табулатур и нот


Caramelos De Cianuro - Sanitarios - аккорды и текст, таба, бас-таба, видео

Регистрация Запомнить меня
Войти через:  Facebook Google Twitter Vk Yandex Mail.ru

Caramelos De Cianuro - Sanitarios - аккорды и текст, таба, бас-таба, видео

Печатать
Просмотров: 162
Sanitarios
Caramelos De Cianuro
ACORDES
  -------------|
+----+---------|
| G5 | 355xxx |
+----+--------+
| C5 | x355xx |
+----+--------+
| A5 | 577xxx |
+----+--------+
| E5 | 022xxx |
+----+--------+
| D5 | x577xx |
+----+--------+

-Intro 1-

e|---------------------------------------|
B|---------------------------------------|
G|---------------------------------------|
D|---------------------5---5---5---------|
A|-----5---5---5---3-3---3---3---3-------|
E|-3-3---3---3---3-----------------------|

e|---------------------------------------|
B|---------------------------------------|
G|---------------------------------------|
D|---------------------------------------|
A|-----7---7---7---7---7---7-------------|
E|-5-5---5---5---5---5---5---------------|

-Intro 2- 
Добавлено: 08.06.2012
Другие материалы по этой песне:

Страница создана 05.03.2012
http://primanota.ru/caramelos-de-cianuro/sanitarios-chords.htm
Привет, Гость.
Предлагаем пройти революционный курс по гитаре.
Подарок от PrimaNota.Ru, забирай!