PrimaNota.ru - самый крупный в мире бесплатный архив песенных текстов, аккордов, табулатур и нот


Caramelos De Cianuro - Delineador Principio - таба, видео

Регистрация Запомнить меня
Войти через:  Facebook Google Twitter Vk Yandex Mail.ru

Caramelos De Cianuro - Delineador Principio - таба, видео

Печатать
Просмотров: 129
Pista 1
     Q    Q    Q    Q       Q    Q    Q    Q       Q    Q    Q    Q     
E||----------------------|----------------------|----------------------|
B||----------------------|----------------------|----------------------|
G||----------------------|----------------------|----------------------|
D||--5----5----5----5----|--5----5----5----5----|--5----5----5----5----|
A||--5----5----5----5----|--5----5----5----5----|--5----5----5----5----|
E||--3----3----3----3----|--3----3----3----3----|--3----3----3----3----|


  Q    Q    Q    Q       Q    Q    Q    Q       Q    Q    Q    Q     
----------------------|----------------------|----------------------|
----------------------|----------------------|----------------------|
----------------------|----------------------|----------------------|
--5----5----5----5----|--5----5----5----5----|--5----5----5----5----|
--5----5----5----5----|--5----5----5----5----|--5----5----5----5----|
--3----3----3----3----|--3----3----3----3----|--3----3----3----3----|


  Q    Q    Q    Q       Q    Q     Q    Q       Q    Q    Q    Q    Q     
----------------------|-----------------------|---------------------------|
----------------------|-----------------------|---------------------------|
----------------------|-----------------------|---------------------------|
--5----5----5----5----|--5----L---------------|-------2----2----2----2----|
--5----5----5----5----|--5----2h----3----2----|--0----2----2----2----2----|
--3----3----3----3----|--3----L---------------|-------0----0----0----0----|


  Q    Q    Q    Q       Q    Q    Q    Q       Q    Q    Q     Q     
----------------------|----------------------|-----------------------|
----------------------|----------------------|-----------------------|
----------------------|----------------------|-----------------------|
--2----2----2----2----|--2----2----2----2----|--2----2---------------|
--2----2----2----2----|--2----2----2----2----|--2----2----2h----3----|
--0----0----0----0----|--0----0----0----0----|--0----0---------------|


  Q    Q    Q    Q       Q    Q    Q    Q       Q    Q    Q    Q     
----------------------|----------------------|----------------------|
----------------------|----------------------|----------------------|
----------------------|----------------------|----------------------|
------------5----5----|--5----5----5----5----|--5----5----5----5----|
--2----0----5----5----|--5----5----5----5----|--5----5----5----5----|
------------3----3----|--3----3----3----3----|--3----3----3----3----|


  Q    Q    Q    Q       Q    Q    Q    Q       Q    Q    Q    Q     
----------------------|----------------------|----------------------|
----------------------|----------------------|----------------------|
----------------------|----------------------|----------------------|
--5----5----5---------|-----------------2----|--2----2----2----2----|
--5----5----5----2----|--3----2----0----2----|--2----2----2----2----|
--3----3----3---------|-----------------0----|--0----0----0----0----|


  Q    Q    Q    Q       Q    Q    Q    Q       Q    Q    Q    Q    Q     
----------------------|----------------------|---------------------------|
----------------------|----------------------|---------------------------|
----------------------|--2----2----2----2----|--2----2----2----2----2----|
----------------------|--2----2----2----2----|--2----2----2----2----2----|
--3----5----3----2----|--0----0----0----0----|--0----0----0----0----0----|
----------------------|----------------------|---------------------------|


  Q    Q    Q    Q       Q    Q    Q    Q       Q    Q    Q    Q     
----------------------|----------------------|----------------------|
----------------------|----------------------|----------------------|
----------------------|-----------------5----|--5----5----5----5----|
----------------------|-----------------5----|--5----5----5----5----|
------------0----3----|--2----0---------3----|--3----3----3----3----|
--2----3--------------|------------3---------|----------------------|


  Q    Q    Q    Q       Q    Q    Q    Q               Q    Q             
----------------------|----------------------|-------|------------|-------|
----------------------|----------------------|-------|------------|-------|
--5----5----5----5----|--5----5----5----5----|-------|--5----5----|-------|
--5----5----5----5----|--5----5----5----5----|-------|--5----5----|-------|
--3----3----3----3----|--3----3----3----3----|-------|--3----3----|-------|
----------------------|----------------------|-------|------------|
Добавлено: 05.04.2012
Другие материалы по этой песне:

Страница создана 05.04.2012
http://primanota.ru/caramelos-de-cianuro/delineador-principio-chords.htm
Привет, Гость.
Предлагаем пройти революционный курс по гитаре.
Подарок от PrimaNota.Ru, забирай!