PrimaNota.ru - самый крупный в мире бесплатный архив песенных текстов, аккордов, табулатур и нот


Carach Angren - The Sigting Is A Portent Of Doom - таба, видео

Регистрация Запомнить меня
Войти через:  Facebook Google Twitter Vk Yandex Mail.ru

Carach Angren - The Sigting Is A Portent Of Doom - таба, видео

Печатать
Просмотров: 124
-------------------------------------------------------------------------------
             The Sigting Is A Portent Of Doom - Carach Angren
-------------------------------------------------------------------------------

Tuning: CFBbEbGC

e|----------------1-----------------------------------------------------------|
B|----------------1----101010109999-------------------------------------------|
G|----------------1------------------77776666---------------------------------|
D|-------------3--3--------------------------77776666-------------------------|
A|-------------3--3----------------------------------88887777-------------3-3-|
E|-1111111111111--1--------------------------------------------111111111111-1-|
   .............

e|----------------5~--------------------------------------------------------3~----|
B|----------------7~--------------------------------------------------------5~----|
G|----------------6~--------------------------------------------------------4~----|
D|------------------------------------------2---2-2-2-2---2-2-2-2-2-2-------------|
A|-------------3-3----+5~-------------------2---2-2-2-2---2-2-2-2-2-2-22222-------|
E|-1111111111111-1---------5555555522222222-0---0-0-0-0---0-0-0-0-0-0-00000-------|
   ............. .         ................                       . . .....

e|---------------------------------------------------------------------------------3~--|
B|---------------------------------------------------------------------------------5~--|
G|---------------------------------------------------------------------------------4~--|
D|-------------------------------------------------------------------------------------|
A|----------------------------------------------2--2-2-2-2-22222-2--2-2-2-2-22222------|
E|-0h1p0h1p0h1p0h1p0h1p0-4h5p4h5p4h5p4h5p4h5p4--0--0-0-0-0-00000-0--0-0-0-0-00000------|
                                                   . . . . .....    . . . . .....

e|-------------------------66667~-|-------------------------------------------------------------|
B|-----------------55556666-------|-------------------------------------------------------------|
G|---------44445555---------------|-O-----------------------------------------------------------|
D|-22223333-----------------------|-O---------------------------------333333336666666633333333--|
A|--------------------------------|---2-2-2-2-2-2-2-2-2-2-2-2-2-2-2-2---------------------------|
E|--------------------------------|---0-0-0-0-0-0-0-0-0-0-0-0-0-0-0-0---------------------------|
                                      . . . . . . . . . . . . . . . . 

e|--------------------------------------------------------------|
B|--------------------------------------------------------------|
G|-----------------------------------------------------------O--|
D|---------------------------------666666669999999966666666--O--|
A|-2-2-2-2-2-2-2-2-2-2-2-2-2-2-2-2------------------------------|
E|-0-0-0-0-0-0-0-0-0-0-0-0-0-0-0-0------------------------------|
   . . . . . . . . . . . . . . . .

e|------------------------------------------------------------------|
B|------------------------------------------------------------------|
G|------------------------------------------------------------------|
D|-----7-9-10-9-7-6-15-14-12-10-9~-14-12-10/9-7/2-------------------|
A|------------------------------------------------3-2--7--7-7-7-7---|
E|-7-8-------------------------------------------------5--5-5-5-5---|
   . .                                                 .  . . . .

e|------------------------------------------------------------------------------15/----|
B|------------------------------------18-17-15-17-15h17p15/13-12-----------------------|
G|--------------------------------------------------------------14~--------------------|
D|-----7-9-12-10-9-7-15-14-12-10/21~~--------------------------------------------------|
A|-------------------------------------------------------------------11-12-14----------|
E|-7-8-------------------------------------------------------------13------------------|
   . .                                                             .  .  .  .

e|------------------------444444447777777744444444----------7777777710101010101010101077777777-|
B|------------------------666666669999999966666666----------9999999912121212121212121299999999-|
G|------------------------555555558888888855555555----------8888888811111111111111111188888888-|
D|------------------------333333336666666633333333----------666666668-8-8-8-8-8-8-8-8-66666666-|
A|-2-2-2--2-2-2--22222222--------------------------22222222------------------------------------|
E|-0-0-0--0-0-0--00000000--------------------------00000000------------------------------------|
   . . .  . . .  ........                          ........

e|-----------------4444444477777777-----------------777777771010101010101010-|
B|-----------------6666666699999999-----------------999999991212121212121212-|
G|-----------------5555555588888888-----------------888888881111111111111111-|
D|-----------------3333333366666666-----------------666666668-8-8-8-8-8-8-8--|
A|-2----2----2-2--------------------2-22-22-22222222-------------------------|
E|-0-00-0-00-0-0--0-----------------0-00-00-00000000-------------------------|
   . .. . .. . .  .                 . .. .. ........

e|---------------------------------------------------------------------------|
B|--------------------------------------------------------555566665555-------|
G|---------------------------------------------------------------------------|
D|----------------------------------66666666---------7777--------------------|
A|-------2-------2--2-2--2-------2----------77777777-------------------------|
E|-0-0-0-0-0-0-0-0--0-0--0-0-0-0-0--------------------------------------0-0-0|
   . . .   . . .    . .  . . . .

e|-----------------------------------------------7777888877778888------------|
B|---------------------------------------------------------------5555----5555|
G|-------------------------------------------------------------------2222----|
D|---------------------------6666666--------77777----------------------------|
A|-2-------2--2-2--2-------2--------77777777---------------------------------|
E|-0-0-0-0-0--0-0--0-0-0-0-0-------------------------------------------------|
     . . .    . .  . . . .  

e|-7777------------------------------------------5-7-8-7-5-------------------|
B|-----5555----5555----------------------------------------------------------|
G|---------1111----7-5-4-7-5-4-7-5-4-7-5-4-2-4-5-----------5-4-2-------------|
D|---------------------------------------------------------------------------|
A|-----------------------------------------------------------------------7777|
E|---------------------------------------------------------------55558888----|


e|---------------------------------------------------------------------------|
B|---------------------------------------------------------------------------|
G|---------------------7777----9999------------------------------------------|
D|-7777--------66669999----6666----77777777------------X\\\\\\\\\\\\\\\\\--2-|
A|-----55558888----------------------------7777--------X\\\\\\\\\\\\\\\\\--2-|
E|---------------------------------------------88885---X\\\\\\\\\\\\\\\\\--0-|
                                                       pick slide (1:57)

e|--------------------------------------------3--|-------------------------------|
B|--------------------------------------------5--|-------------------------------|
G|--------------------------------------------4--|o----------12121212------------|
D|------------2--------------2-------------------|o------9999--------9999----9999|
A|-2-2--------2--2-2-2-22222-2--2-2-2-22222-2----|--7777----------------7777-----|
E|-0-0---8/---0--0-0-0-00000-0--0-0-0-00000-0----|-------------------------------|
   . .           . . . .....    . . . ..... .

e|---------------------------------------------------------------------------|
B|-----------------------------6666777799997777999910109999------------------|
G|---------------------------------------------------------7777--------------|
D|-------------------------7777--------------------------------7777----------|
A|-777788881010101011111111----------------------------------------55557777-|
E|---------------------------------------------------------------------------|
   not sure about this part (2:24)

e|---------------------------------------------181818181717171715151515--------|
B|-------------------------66667777999910101010------------------------15151515|
G|-----------------------------------------------------------------------------|
D|---------------------7777----------------------------------------------------|
A|-88881010101011111111--------------------------------------------------------|
E|-----------------------------------------------------------------------------|

e|---------------------------------------------------------------------------------|
B|-13h15p13\12---------------------------------------------------------------------|
G|------------14~------------------------------------------------------------------|
D|---------------------------------------------------------------------------------|
A|-----------------6-6-6-6-6-6-6-6-6-6-6-6-6-6-6-6-4-4-4-4-4-4-4-4-4-4-4-4-4-4-4-4-|
E|-----------------4-4-4-4-4-4-4-4-4-4-4-4-4-4-4-4-2-2-2-2-2-2-2-2-2-2-2-2-2-2-2-2-|
                   . . . . . . . . . . . . . . . . . . . . . . . . . . . . . . . . 

                       play this first time      2nd time
e|---------------------------------|--------6666777799997h9p7p6---|---------66667777-----------------|
B|---------------------------------|---------------------------8--|----------------------------------|
G|---------------------------------|44444444---------------------o|-44444444--------7777666677779999-|
D|---------------------------------|-----------------------------o|----------------------------------|
A|-2-2-2-2-2-2-2-2-2-2-2-2-2-2-2-2-|------------------------------|----------------------------------|
E|-0-0-0-0-0-0-0-0-0-0-0-0-0-0-0-0-|------------------------------|----------------------------------|
   . . . . . . . . . . . . . . . .

e|---------------------------------------------------------------------------------|
B|---------------------------------------------------------------------------------|
G|--/12~--11~----/14~---17--16--16-17-16h17p16-14-16~------------------------/14---|
D|--------------------------------------------------------------------10~-9~-------|
A|-----------------------------------------------------/10~--9~---12~--------------|
E|---------------------------------------------------------------------------------|
 (3:06)
e|-----------------------------------|
B|-----------------------------------|
G|-----------------------------------|
D|-----------------4--2--2-----------|
A|-/10~---9~---0---2--0--2-----------|
E|-----------------------0-----------|
                   .  .
e|----------------444444447777777744444444-------------------7777777710101010101010101313131313131313-|
B|----------------666666669999999966666666-------------------9999999912121212121212121515151515151515-|
G|----------------555555558888888855555555-------------------8888888811111111111111111414141414141414-|
D|----------------333333336666666633333333-------------------666666669-9-9-9-9-9-9-9-1212121212121212-|
A|-2-2-2--22222222-------------------------2---2---2--------------------------------------------------|
E|-0-0-0--00000000-------------------------0-0-0-0-0-00000000-----------------------------------------|
          ........                           .   .   ........

e|----------------|
B|----------------|
G|----------------|
D|----------------|
A|-3----3----3-x--|
E|-1-11-1-11-1-x--|
     ..   ..

************************************

| /   slide up
| \   slide down
| h   hammer-on
| p   pull-off
| ~   vibrato
| +   harmonic
| x   Mute note
| b   Bend
| pb  Pre-bend
| br  Bend release
| pbr Pre-bend release
| brb Bend release bend
| .   Palm Mute

************************************
Добавлено: 20.11.2015
Другие материалы по этой песне:
  • Аккорды и текст

Страница создана 20.11.2015
http://primanota.ru/carach-angren/sigting-is-a-portent-of-doom-chords.htm
Привет, Гость.
Предлагаем пройти революционный курс по гитаре.
Подарок от PrimaNota.Ru, забирай!