PrimaNota.ru - самый крупный в мире бесплатный архив песенных текстов, аккордов, табулатур и нот


Carach Angren - Haunting echoes from the seventeenth century - текст песни, таба, видео

Регистрация Запомнить меня
Войти через:  Facebook Google Twitter Vk Yandex Mail.ru

Carach Angren - Haunting echoes from the seventeenth century - текст песни, таба, видео

Печатать
Просмотров: 109
-------------------------------------------------------------------------------
        Haunting Echoes from the Seventeenth Century - Carach Angren
-------------------------------------------------------------------------------
Tabbed by:
E-mail:

Tuning:DGCFAD

D|------------------------------------------------------------------------------------|
A|------------------------------------------------------------------------------------|
F|---------------------666666666666------------------------------------888777-------o-|
C|-6-------------------666666666666-6----------------------------666999------999666-o-|
G|-6-------------------444444333333-6-------------------------666---------------------|
D|-4-4-4-4-4-4-4-4-4-4--------------4-4-4-4-4-4-4-4-4-4-444777------------------------|
     . . . . . . . . .                . . . . . . . . . 
D|----------------------------------|--------------------------------------------|
A|----------------------------------|--------------------------------------------|
F|---------------------1------------|o-888888------999888------------------------|
C|-3----4--6--4--6--3---3---4-6-4-6-|o-------999999------101010999888999555666888|
G|-3----4--6--4--6--3----3--4-6-4-6-|--------------------------------------------|
D|-1----2--4--2--4--1------ 2-4-2-4-|--------------------------------------------|


D|-----------------------------|------------------------------------------------|
A|-----------------------------|------------------------------------------------|
F|888777----------------------o|---------------------1--------------------------|
C|------888666666-6-6-6-9-9-9-o|-3----4--6--4--6--3---3---3---4/--666777666555~-|
G|----------------6-6-6-9-9-9--|-3----4--6--4--6--3----3--3---4/----------------|
D|----------------4-4-4-7-7-7--|-1----2--4--2--4--1-------1---2/----------------|

D|------------------------------------------------|-------------------------------|
A|------------------------------------------------|-------------------------------|
F|o----------------------------------------------o|-------------------------------|
C|o---555777---------------888777555777777555555-o|-4-------------4-------------7-|
G|----------555---002244--------------------------|-4-------------4-------------7-|
D|-444---------333------444-----------------------|-2-2-2-2-2-2-2-2-2-2-2-2-2-2-5-|

D|-------------------------------------------------------|
A|--------------------------------666666666--------------|
F|--------------------------------777777777--------------|
C|-3-----------------------3------999999999-4------------|
G|-3--3-3-3-3--------------3------999999999-4------------|
D|-1--1-1-1-1--------------1----------------2------------|
  This is the saga of the white ghost haunting Lammendam

D|---------------------------------------------------------------------------|
A|---------------------------------------------------------------------------|
F|---------------------------------------------------------------------------|
C|-7-3-7-------5-----------7-3-7-------7-3-7-------7-3-7-------7-----(5)p.h--|
G|-------5-4-5---5-5-------------5-4-5-------5-4-5-------5-4-5---5-5---------|
D|-------------------6-5-6---------------------------------------------------|

D|--------------------------------------------------------|
A|--------------------------------------------------------|
F|---------------------------7776-------------------------|
C|-/-4-4-4-4-4-4-4-4-4-5-5-5------4-------4-4-4-4-4-5-5-5-|
G|-/-4-4-4-4-4-4-4-4-4-5-5-5------4-------4-4-4-4-4-5-5-5-|
D|-/-2-2-2-2-2-2-2-2-2-3-3-3------2-2-2-2-2-2-2-2-2-3-3-3-|

D|------------------------------------------------|-------------------------------|
A|------------------------------------------------|-------------------------------|
F|o----------------------------------------------o|-------------------------------|
C|o---555777---------------888777555777777555555-o|-4-------------4-------------7-|
G|----------555---002244--------------------------|-4-------------4-------------7-|
D|-444---------333------444-----------------------|-2-2-2-2-2-2-2-2-2-2-2-2-2-2-5-|

D|-------------------------------------------------------|
A|--------------------------------666666666--------------|
F|--------------------------------777777777--------------|
C|------------------------/3------999999999-4------------|
G|------------------------/3------999999999-4------------|
D|------------------------/1----------------2------------|
  Everyone knew there were two young fellows who gave


D|---------------------------------------------------------------------------|
A|---------------------------------------------------------------------------|
F|---------------------------------------------------------------------------|
C|-7-3-7-------5-----------7-3-7-------7-3-7-------7-3-7-------7-----(5)p.h--|
G|-------5-4-5---5-5-------------5-4-5-------5-4-5-------5-4-5---5-5---------|
D|-------------------6-5-6---------------------------------------------------|

D|------------------------------------------------------------------------|
A|------------------------------------------------------------------------|
F|---------------------------8887-----------------------------------------|
C|-/-4-4-4-4-4-4-4-4-4-5-5-5------4-------4-4-4-4-4-5-5-5------5-5-5------|
G|-/-4-4-4-4-4-4-4-4-4-5-5-5------4-------4-4-4-4-4-5-5-5------5-5-5------|
D|-/-2-2-2-2-2-2-2-2-2-3-3-3------2-2-2-2-2-2-2-2-2-3-3-3------3-3-3------|


D|-------------------------------------------------------------------------|
A|-------------------------------------------------------------------------|
F|-------------------------------------------------------------------------|
C|-7-7-7-7-7-7-7-7-7-7-7-7-7-7-6-6-6-6-6-6-6-6-6-6-6-6-6-6-5-5-5-5-5-5-5-5-|
G|-9-9-9-9-9-9-9-9-9-9-9-9-9-9-7-7-7-7-7-7-7-7-7-7-7-7-7-7-6-6-6-6-6-6-6-6-|
D|-------------------------------------------------------------------------|
  This region once was called De Leiffartshof


D|---------------------------------------------------------------------------|
A|---------------------------------------------------------------------------|
F|---------------------------------------------------------------------------|
C|-5-5-5-5-5-5-8-6-4-8-6h8p6p4------------------4-4---4-4---4444---4444---4-4|
G|-6-6-6-6-6-6-----------------8-6-4-8-6h8p6p4--4-4---4-4---4444---4444---4-4|
D|----------------------------------------------2-2---2-2---2222---2222---2-2|

D|-----------------------------------------------------------------------------------------------|
A|-----------------------------------------------------------------------------------------------|
F|-----------------------------------------------------------------------------------------------|
C|--2-2---2-2---2222---2222---2-2--8-8---8-8---8888---8888---8-8--7-7---7-7---7777---7777---7-7--|
G|--2-2---2-2---2222---2222---2-2--8-8---8-8---8888---8888---8-8--7-7---7-7---7777---7777---7-7--|
D|--0-0---0-0---0000---0000---0-0--6-6---6-6---6666---6666---6-6--5-5---5-5---5555---5555---5-5--|



During day he came with his horse and carriage then whistled
Then she knew he was there
A secret affair
Therefore you'll be crowned as a whore




D|--------19~---20--19-17~--------------------------------------------------------------------------------|
A|-15~----------------------15--14-12~--8-9-11-12-13--14~-------------------------------------------------|
F|--------------------------------------------------------------------------------------------------------|
C|--------------------------------------------------------------------------------------------------------|
G|----------------------------------------------------------888777777888101010-11-11-11-13-13-13-11-11-11-|
D|--------------------------------------------------------------------------------------------------------|
                                           (tremolo pick this part these notes are seperated so that is legible)

D|----------------------------------------------------------------------------------|
A|----------------------------------------------------------------------------------|
F|--------9-9------9-9------9-9------9-9---------10--10---------10--10--------------|
C|-----999-9----999-9----999-9----999-9----101010--10-----101010--10--10101010101010|
G|--777------777------777------777------888------------888------------8-8-8-8-8-8-8-|
D|----------------------------------------------------------------------------------|
   Lammendam
D|------------------------------------------------------------------------------|--------|
A|------------------------------------------------------------------------------|--------|
F|--------9-9------9-9------9-9------9-9---------10--10---------10--10---------o|--------|
C|-----999-9----999-9----999-9----999-9----101010--10-----101010--10--101010-x-o|-121212-|
G|--777------777------777------777------888------------888------------8-8-8--x--|-101010-|
D|---------------------------------------------------------------------------x--|--------|
                               play this twice end on the f5

D|------------------------------------------------|-------------------------------|
A|------------------------------------------------|-------------------------------|
F|o----------------------------------------------o|-------------------------------|
C|o---555777---------------888777555777777555555-o|-4-------------4-------------7-|
G|----------555---002244--------------------------|-4-------------4-------------7-|
D|-444---------333------444-----------------------|-2-2-2-2-2-2-2-2-2-2-2-2-2-2-5-|

D|--------------------------------------------------------------------------|
A|--------------------------------------------------------------------------|
F|---------------------------------------------777777777--------------------|
C|-3----------------333333333444444444666666666777777777-------4------------|
G|-3--3-3-3-3-------333333333444444444666666666555555555-------4------------|
D|-1--1-1-1-1-------111111111222222222444444444555555555-------2------------|
  One day he's riding his black horse through southern paradise

D|---------------------------------------------------------------------------|
A|---------------------------------------------------------------------------|
F|---------------------------------------------------------------------------|
C|-7-3-7-------5-----------7-3-7-------7-3-7-------7-3-7-------7-----5~------|
G|-------5-4-5---5-5-------------5-4-5-------5-4-5-------5-4-5---5-5---------|
D|-------------------6-5-6---------------------------------------------------|

D|------------------------------------------------------------------|
A|------------------------------------------------------------------|
F|---------------------------7776-----------------------------------|
C|-/-4-4-4-4-4-4-4-4-4-5-5-5------4-------4-4-4-4-4-5-5-5---5-5-5-4-|
G|-/-4-4-4-4-4-4-4-4-4-5-5-5------4-------4-4-4-4-4-5-5-5---5-5-5-4-|
D|-/-2-2-2-2-2-2-2-2-2-3-3-3------2-2-2-2-2-2-2-2-2-3-3-3---3-3-3-2-|


...and they hated passionately ever after...



************************************

| /   slide up
| \   slide down
| h   hammer-on
| p   pull-off
| ~   vibrato
| +   harmonic
| x   Mute note
| b   Bend
| pb  Pre-bend
| br  Bend release
| pbr Pre-bend release
| brb Bend release bend

************************************
Добавлено: 20.11.2015
Вам также может быть интересно:
Другие материалы по этой песне:
  • Аккорды и текст

Страница создана 02.02.2014
http://primanota.ru/carach-angren/haunting-echoes-from-the-seventeenth-century-chords.htm
Привет, Гость.
Предлагаем пройти революционный курс по гитаре.
Подарок от PrimaNota.Ru, забирай!