PrimaNota.ru - самый крупный в мире бесплатный архив песенных текстов, аккордов, табулатур и нот


Car Seat Headrest - Sober To Death - таба, видео

Регистрация Запомнить меня
Войти через:  Facebook Google Twitter Vk Yandex Mail.ru

Car Seat Headrest - Sober To Death - таба, видео

Печатать
Просмотров: 205
Уроки эстрадного вокала в Санкт-Петербурге
Tabbed by Jacob Collier

Standard Tuning


Intro/Verses:
E|--------------------------------------------|
B|--------------------------------------------|
G|--------------------------------------------|
D|-----------2--------0-----------0--------0--|
A|-----0--------0-----------2--------2--------|
E|--3-----3--------3-----3-----3--------3-----|  x2


E|--------------------------------------------|
B|--------------------------------------------|
G|--------------------------------------------|
D|-----------2--------0-----------0--------0--|
A|-----2--------2-----------2--------2--------|
E|--0-----0--------0-----0-----0--------0-----|

E|--------------------------------------------|
B|--------------------------------------------|
G|--------------------------------------------|
D|-----------2--------0-----------0--------0--|
A|-----3--------3-----------3--------3--------|
E|--3-----3--------3-----3-----3--------3-----|


G
Nothing works
G                 Em
Nothing works for everyone
                 C
Good stories are bad lives
                 D
Good stories are bad lives

                                  G
Take your hands off your neck and hold on to the ghost of my body
    Em
You know that good lives make bad stories
C
You can text me
D                             G
When punching mattresses gets old
                                 Em
Don't think it'll always be this way

Not comforted by anything I say
C                D
We were wrecks before we crashed into each other


  Such a good idea...
E|--------------------------------------------|
B|--------------------------------------------|
G|--------------------------------------------|
D|-----------2--------0-----------0--------0--|
A|-----0--------0-----------2--------2--------|
E|--3-----3--------3-----3-----3--------3-----|  x2


E|--------------------------------------------|
B|--------------------------------------------|
G|--------------------------------------------|
D|-----------2--------0-----------0--------0--|
A|-----2--------2-----------2--------2--------|
E|--0-----0--------0-----0-----0--------0-----|

E|--------------------------------------------|
B|--------------------------------------------|
G|--------------------------------------------|
D|-----------2--------0-----------0--------0--|
A|-----3--------3-----------3--------3--------|
E|--3-----3--------3-----3-----3--------3-----|


For the 'Ahh-Ahh-A-A-Ahhhhhhh' part, repeat G Em C D twice


                                G
Take my hands off your neck and hold on to the ghost of your body
  Em
I know that good lives make bad stories
C
You can text me
D                             G
When punching mattresses gets old
                             Em
What if it'll always be this way

Not comforted by anything you say
C                D
We were wrecks before we crashed into each other

Repeat G Em C D twice again for the second 'Ahhhh' part


               Don't worry
E|-----------0--------3--3--3--3--3--3--3--3--|
B|--------------1-----0--0--0--0--0--0--0--0--|
G|--------0--------0--0--0--0--0--0--0--0--0--|
D|-----2--------------0--0--0--0--0--0--0--0--|
A|--3-----------------2--2--2--2--2--2--2--2--|
E|--------------------3--3--3--3--3--3--3--3--|

  You and me wont be alone no more
E|-----------0--------0--0--0--0--0--0--0--0--|
B|--------------1-----0--0--0--0--0--0--0--0--|
G|--------0--------0--0--0--0--0--0--0--0--0--|
D|-----2--------------2--2--2--2--2--2--2--2--|
A|--3-----------------2--2--2--2--2--2--2--2--|
E|--------------------0--0--0--0--0--0--0--0--|

               Don't worry
E|-----------0--------3--3--3--3--3--3--3--3--|
B|--------------1-----0--0--0--0--0--0--0--0--|
G|--------0--------0--0--0--0--0--0--0--0--0--|
D|-----2--------------0--0--0--0--0--0--0--0--|
A|--3-----------------2--2--2--2--2--2--2--2--|
E|--------------------3--3--3--3--3--3--3--3--|

  You and me wont be alone no more
E|-----------2--------0--0--0--0--0--0--0--0--|
B|--------3-----3-----1--1--1--1--1--1--1--1--|
G|-----2-----------2--2--2--2--2--2--2--2--2--|
D|--0-----------------2--2--2--2--2--2--2--2--|
A|--------------------0--0--0--0--0--0--0--0--|
E|--------------------0--0--0--0--0--0--0--0--|
Добавлено: 21.11.2015
Другие материалы по этой песне:
  • Аккорды и текст

Страница создана 21.11.2015
http://primanota.ru/car-seat-headrest/sober-to-death-chords.htm
Привет, Гость.
Предлагаем пройти революционный курс по гитаре.
Подарок от PrimaNota.Ru, забирай!