PrimaNota.ru - самый крупный в мире бесплатный архив песенных текстов, аккордов, табулатур и нот


Capture The Crown - Oxy Sunrise - таба, видео

Регистрация Запомнить меня
Войти через:  Facebook Google Twitter Vk Yandex Mail.ru

Capture The Crown - Oxy Sunrise - таба, видео

Печатать
Просмотров: 62
C#:-----------------------------
G#:-----------------------------
E :-----------------------------
B :-----0~--------0~------------ 
F#:-----0~--------0~------------
B :0000-0~---0000-0~--3333377777
   ****      ****          
C#:-----------------------------
G#:-----------------------------
E :-----------------------------
B :-----0~--------0~------------ 
F#:-----0~--------0~--3333377777
B :0000-0~---0000-0~--3333377777
   ****      ****          
C#:-----------------------------
G#:-----------------------------
E :-----------------------------
B :-----0~--------0~------------ 
F#:-----0~--------0~------------
B :0000-0~---0000-0~--3333377777
   ****      ****          
C#:-----------------------------
G#:-----------------------------
E :-----------------------------
B :-----0~--------0~------------ 
F#:-----0~--------0~--3333377777
B :0000-0~---0000-0~--3333377777
   ****      ****          
C#:--------------------------------------------------------------
G#:--------------------------------------------------------------
E :--------------------------------------------------------------  x2
B :--------------------------------------------------------------
F#:--------------------------------------------------------------
B :12~0000-0-0000-12-0000-0-0000-12-0000-0-0000-12h13-12h13-12h13
  
C#:-----------------------
G#:-----------------------
E :-----------------------
B :0~------3~-------8~xxxx
F#:0~------3~-------8~xxxx
B :0~------3~-------8~xxxx

C#:--------------------
G#:--------------------
E :-------------------- x2
B :--------------------
F#:00000033333388888888
B :00000033333388888888

C#:--------------------------------------------------------------
G#:--------------------------------------------------------------
E :--------------------------------------------------------------
B :--------------------------------------------------------------
F#:--------------------------------------------------------------
B :12~0000-0-0000-12-0000-0-0000-12-0000-0-0000-12h13-12h13-12h13

C#:-------------------------
G#:-------------------------
E :-------------------------
B :-------------------------
F#:00---0000---00-----------
B :00---0000---00---55553333
   **   ****   **
C#:-----------------------
G#:-----------------------
E :-----------------------
B :0~------3~-------8~xxxx
F#:0~------3~-------8~xxxx
B :0~------3~-------8~xxxx

C#:--------------------
G#:--------------------
E :-------------------- x2
B :--------------------
F#:00000033333388888888
B :00000033333388888888

C#:-----
G#:-----
E :-----
B :0~~~~
F#:0~~~~
B :0~~~~

Break

C#:-----------------
G#:-----------------
E :-----------------
B :----------------- x2
F#:00---0000---00---
B :11---1111---11---
   **   ****   **
C#:-----------------------
G#:-----------------------
E :-----------------------
B :0~------3~-------8~xxxx
F#:0~------3~-------8~xxxx
B :0~------3~-------8~xxxx

C#:--------------------
G#:--------------------
E :-------------------- x4
B :--------------------
F#:00000033333388888888
B :00000033333388888888

C#:--------------------------------------------------------------
G#:--------------------------------------------------------------
E :--------------------------------------------------------------
B :--------------------------------------------------------------
F#:--------------------------------------------------------------
B :12~0000-0-0000-12-0000-0-0000-12-0000-0-0000-12h13-12h13-12h13
Добавлено: 12.05.2016
Вам также может быть интересно:
Другие материалы по этой песне:
  • Аккорды и текст

Страница создана 12.05.2016
http://primanota.ru/capture-the-crown/oxy-sunrise-chords.htm
Привет, Гость.
Предлагаем пройти революционный курс по гитаре.
Подарок от PrimaNota.Ru, забирай!