PrimaNota.ru - самый крупный в мире бесплатный архив песенных текстов, аккордов, табулатур и нот


Captain Sensible - Glad Its All Over - бас-таба, видео

Регистрация Запомнить меня
Войти через:  Facebook Google Twitter Vk Yandex Mail.ru

Captain Sensible - Glad Its All Over - бас-таба, видео

Печатать
Просмотров: 138
Уроки эстрадного вокала в Санкт-Петербурге
Tabbed by: bassm99
E-mail: alanmatthews1966@yahoo.co.uk

Tuning: E, A, D, G

"Glad It's All Over" from the album "The Power Of Love" (1983)
Written by Captain/T.Mansfield

Bass Starts: 0:17

Intro: (Play Twice)  

G|--------------------------------------------------------------------------|
D|--------------------------------------------------------------------------|
A|----------10-12-----------------------------------------------------------|
E|--8-10-12-------13--------------------------------------------------------|

Verse:

G|--------------------------------------------------------------------------|
D|--------------------------------------------------------------------------|
A|----------8-(888)-(x6)--7-(777)-----------------------------10-(10-10-10)-|
E|--8-(888)-----------------------11-(11-11-11)-10-(10-10-10)---------------|

Chorus: (Play 4 Times)

G|--------------------------------------------------------------------------|
D|--------------------------------------------------------------------------|
A|----------10-12-----------------------------------------------------------|
E|--8-10-12-------13-(13-13-13)---------------------------------------------|

Repeat Verse:

Bridge:

G|--------------------------------------------------------------------------|
D|--------------------------------------------------------------------------|
A|--10-10--------------8-8--10-10-------------------------------------------|
E|---------10-10--8-8--------------10-10------------------------------------|

Chorus:

G|--------------------------------------------------------------------------|
D|--------------------------------------------------------------------------|
A|------------10-12--------------------------10-12--------------------------|
E|--8-8-10-12-------13-(13-13-13)----8-10-12-------13-(13-13-13)------------|

Verse:

G|--------------------------------------------------------------------------|
D|--------------------------------------------------------------------------|
A|----------7-(777)-(x3)----------------8-8-10-10---------------------------|
E|--5-(555)-----------------10-10-12-12-------------------------------------|

Chorus:

G|--------------------------------------------------------------------------|
D|--------------------------------------------------------------------------|
A|----------10-12-----------------------------------8-8-10-10---------------|
E|--8-10-12-------13-(13-13-13)-(x3)----10-10-12-12-------------------------|

Repeat Intro:

Bass Stops: (2:59 - 3:09)

Repeat Chorus: (Play 12 Times) (Fading Out)

End: (Fades Out)

G|--------------------------------------------------------------------------|
D|--------------------------------------------------------------------------|
A|--------------------------------------------------------------------------|
E|--8-10--------------------------------------------------------------------|
Добавлено: 27.12.2015
Другие материалы по этой песне:
  • Аккорды и текст

Страница создана 27.12.2015
http://primanota.ru/captain-sensible/glad-its-all-over-chords.htm
Привет, Гость.
Предлагаем пройти революционный курс по гитаре.
Подарок от PrimaNota.Ru, забирай!