PrimaNota.ru - самый крупный в мире бесплатный архив песенных текстов, аккордов, табулатур и нот


Captain Cleanoff - Rotting - таба, видео

Регистрация Запомнить меня
Войти через:  Facebook Google Twitter Vk Yandex Mail.ru

Captain Cleanoff - Rotting - таба, видео

Печатать
Просмотров: 103
Band: Captain Cleanoff 
Song: Rotting 
Album: Captain Cleanoff 
Label: No Escape 




Tuning: C# G# C# F# A# D# 


b = bend                p = pull off 
h = half                h = hammer on 
f = full                q = quarter 
r = release             t = tap 
/ = slide up            \ = slide down 
ah = atificial harmonic  ~ = vibrato 




Riff 1a 

(0:00-0:10) 
|---------------------------------------| 
|---------------------------------------| 
|---------------------------------------| 
|---------------------------------------| 
|-0-000000-1-000000-3-000000-3-00-1-00--| 
|-0-000000-1-000000-3-000000-3-00-1-00--| 
    ......   ......   ......   ..   .. 

Riff 1b 

(0:11-0:20) 
|---------------------------------------| 
|---------------------------------------| 
|---------------------------------------|Gtr 1 
|---------------------------------------| 
|-0-000000-1-000000-3-000000-3-00-1-00--| 
|-0-000000-1-000000-3-000000-3-00-1-00--| 
    ......   ......   ......   ..   .. 

|---------------------------------------| 
|---------------------------------------| 
|---------------------------------------|Gtr 2 
|-7--------8--------10-------10---8-----| 
|-5-000000-6-000000-8-000000-8-00-6-00--| 
|-0-000000---000000---000000---00---00--| 
    ......   ......   ......   ..   .. 


Fill 
(0:21-0:22) 
|----| 
|----| 
|----| 
|----| 
|-0--| 
|-0--| 
let ring 



Riff 2a 

(0:23-0:27) 
|--------------------------------------------------------------------| 
|--------------------------------------------------------------------| 
|--------------------------------------------------------------------| 
|--------------------------------------------------------------------| 
|--------------------------------------------------------------------| 
|-00001111000011110000111100001111000011110000111100001111000001111--| 



Riff 2b 

(0:27-0:31) 
|--------------------------------------------------------------------| 
|--------------------------------------------------------------------| 
|--------------------------------------------------------------------| 
|-00001111000011110000111100001111000011110000111100001111000001111--| 
|--------------------------------------------------------------------| 
|--------------------------------------------------------------------| 



(0:31-0:48) 
|-----------------------------| 
|-----------------------------| 
|-----------------------------| 
|-----------------------------| 
|-0-1-0-1-0-1-3-1-0-1-3-1-0-1-| 
|-0-1-0-1-0-1-3-1-0-1-3-1-0-1-| 
              . . . . . . . . 

|-----------------------------| 
|-----------------------------| 
|-----------------------------| 
|-7-8-7-8-7-8-----------------| 
|-5-6-5-6-5-6-3-1-0-1-3-1-0-1-| 
|-------------3-1-0-1-3-1-0-1-| 
              . . . . . . . . 



Repeat Fill 
(0:48-0:49) 


Repeat Riff 2a 
(0:50-0:54) 


Repeat Riff 2b 
(0:55-0:59) 


Repeat Riff 1a 
(0:59-1:17) 


Repeat Riff 2a 
(1:18-1:20) 


Repeat Riff 2b 
(1:20-1:22) 


Ending 

(1:23-1:33) 
|------------| 
|------------| 
|------------| 
|-7-let ring-| 
|-5---out----| 
|------------| 


End
Добавлено: 07.10.2013
Другие материалы по этой песне:
  • Аккорды и текст

Страница создана 07.10.2013
http://primanota.ru/captain-cleanoff/rotting-chords.htm
Привет, Гость.
Предлагаем пройти революционный курс по гитаре.
Подарок от PrimaNota.Ru, забирай!