PrimaNota.ru - самый крупный в мире бесплатный архив песенных текстов, аккордов, табулатур и нот


Captain Cleanoff - Girth Crisis - таба, видео

Регистрация Запомнить меня
Войти через:  Facebook Google Twitter Vk Yandex Mail.ru

Captain Cleanoff - Girth Crisis - таба, видео

Печатать
Просмотров: 93
Band: Captain Cleanoff 
Album: Captain Cleanoff 
Song: Girth Crisis 



Code: 
. - palm mute           / - slide up to 
\ - slide down to       x – Staccato 
h - hammer on           p - pull off 
, - slight palm mute    () - ghost note, sustained note 
" - tremolo note        <> - Trill 
L – left channel only   R – right channel only 
* - see comment 

Suffixes for bend 
f - full bend       h - half bend 
q - quarter bend    t - tap bend 
^ - Hold bend       r - release bend 
~ - vibrato bend 

Suffixes for harmonic 
ph - pinched harmonic   n – natural/artificial harmonic 

Tuning C# G# C# F# A# D# 


Riff 1 (0:00) 
              [x8]              [x4] 
|-----------------|----------------| 
|-----------------|----------------| 
|-----------------|----------------| 
|---------5-5-4-4-|---------5\4----| 
|-1-1-3-3-3-3-2-2-|-6-3-1-0-3\2-3--| 
|-1-1-3-3---------|-6-3-1-0-----3--| 
  . . . .           . . . . 

Fill 1 (0:20) play 4 times 
|-----------------| 
|-----------------| 
|-----------------| 
|---------5-5-4-4-| 
|-1-1-3-3-3-3-2-2-| 
|-1-1-3-3---------| 
  . . . . 

Riff 2 (0:25) play 8 times 
|------------------| 
|------------------| 
|------------------| 
|------------------| 
|-5-5-5-5-8-5-8-5--| 
|-5-5-5-5-8-5-8-5--| 

Riff 3 (0:40) play 4 times 
|-------------------| 
|-------------------| 
|-------------------| 
|-------------------| 
|-------------------| 
|-5555333355558888--| 

Riff 2 x 1/2 (0:45) 

Riff 4 (0:52) play 4 times 
|-------------------| 
|-------------------| 
|-------------------| 
|-------------------| 
|---------3333------| 
|-55556666----6666--| 

Riff 5 (0:56) play 4 times 
|-------------| 
|-------------| 
|-------------| 
|-------7-----| 
|-5--6--5--6--| 
|-5--6-----6--| 

Riff 2 x 1/2 (1:00) 

End (1:08) 
|---| 
|---| 
|---| 
|---| 
|-5-| 
|-5-|
Добавлено: 19.09.2013
Другие материалы по этой песне:
  • Аккорды и текст

Страница создана 19.09.2013
http://primanota.ru/captain-cleanoff/girth-crisis-chords.htm
Привет, Гость.
Предлагаем пройти революционный курс по гитаре.
Подарок от PrimaNota.Ru, забирай!