PrimaNota.ru - самый крупный в мире бесплатный архив песенных текстов, аккордов, табулатур и нот


Captain Cleanoff - Cracked Skull - таба, видео

Регистрация Запомнить меня
Войти через:  Facebook Google Twitter Vk Yandex Mail.ru

Captain Cleanoff - Cracked Skull - таба, видео

Печатать
Просмотров: 98
Band: Captain Cleanoff 
Album: Captain Cleanoff 
Song: Cracked Skull 



Code: 
. - palm mute           / - slide up to 
\ - slide down to       x – Staccato 
h - hammer on           p - pull off 
, - slight palm mute    () - ghost note, sustained note 
" - tremolo note        <> - Trill 
L – left channel only   R – right channel only 
* - see comment 

Suffixes for bend 
f - full bend       h - half bend 
q - quarter bend    t - tap bend 
^ - Hold bend       r - release bend 
~ - vibrato bend 

Suffixes for harmonic 
ph - pinched harmonic   n – natural/artificial harmonic 

Tuning C# G# C# F# A# D# 

Intro (0:12) play twice 
|----------------------------| 
|----------------------------| 
|----------------------------| 
|-4--7-4-4--7-4-4--7-4-4-----| 
|-2--5-2-2--5-2-2--5-2-2--3--| 
|-------------------------3--| 
     . .    . .    . . 

Riff 1 (0:16) play 4 times 
|----------------------------------| 
|----------------------------------| 
|----------------------------------| 
|----------------------------------| 
|-2222555522225555222255552222-----| 
|-----------------------------3333-| 


Riff 2 (0:25) play 4 times 
|-------------------------| 
|-------------------------| 
|-------------------------| 
|-------------------------| 
|-0--0--6--6--8--8--6--6--| 
|-0--0--6--6--8--8--6--6--| 

Riff 1 x 1/2 (0:33) 
Riff 2 x 1 (0:37) 
Intro x 1 (0:44) 
Riff 1 x 1/2 (0:49) 

Riff 3 (0:53) play 8 times 
|-----------------------------| 
|-----------------------------| 
|-----------------------------| 
|-----------------------------| 
|-6--6-6-6-6-2-0-----4-2------| 
|-6--6-6-6-6-----6-3-----6-3--| 
     . . . . 

Riff 2 x 1 (1:10) 

End (1:18) 
|----| 
|----| 
|----| 
|----| 
|-0--| 
|-0--|
Добавлено: 23.07.2013
Другие материалы по этой песне:
  • Аккорды и текст

Страница создана 30.06.2013
http://primanota.ru/captain-cleanoff/cracked-skull-chords.htm
Привет, Гость.
Предлагаем пройти революционный курс по гитаре.
Подарок от PrimaNota.Ru, забирай!