PrimaNota.ru - самый крупный в мире бесплатный архив песенных текстов, аккордов, табулатур и нот


Captain Cleanoff - Aod - таба, видео

Регистрация Запомнить меня
Войти через:  Facebook Google Twitter Vk Yandex Mail.ru

Captain Cleanoff - Aod - таба, видео

Печатать
Просмотров: 142
Band: Captain Cleanoff 
Album: Captain Cleanoff 
Song: A.O.D. 



Code: 
. - palm mute           / - slide up to 
\ - slide down to       x – Staccato 
h - hammer on           p - pull off 
, - slight palm mute    () - ghost note, sustained note 
" - tremolo note        <> - Trill 
L – left channel only   R – right channel only 
* - see comment 

Suffixes for bend 
f - full bend       h - half bend 
q - quarter bend    t - tap bend 
^ - Hold bend       r - release bend 
~ - vibrato bend 

Suffixes for harmonic 
ph - pinched harmonic   n – natural/artificial harmonic 

Tuning C# G# C# F# A# D# 


Riff 1a (0:42) play twice 
|----------------------------------| 
|----------------------------------| 
|----------------------------------| 
|----------------------------------| 
|-5555778844448877----7788----8877-| 
|-----------------8888----5555-----| 
  

Riff 1b (0:49) play twice 
|----------------------------------| 
|----------------------------------| 
|----------------------------------| 
|----------------------------------| gtr 1 
|-5555778844448877----7788----8877-| 
|-----------------8888----5555-----| 

|----------------------------------| 
|----------------------------------| 
|----------------------------------| 
|---------7777----888877557777-----| gtr 2 
|-55557788----8877------------8877-| 
|----------------------------------| 

Riff 2 (0:56) 
|----------------------|----------------------| 
|----------------------|----------------------| 
|----------------------|----------------------| 
|-0-1\0/2-2\1/3-2\1/2--|-0-1\0/2-2\1----------| gtr 1 
|----------------------|-------------8-7\5/7--| 
|----------------------|-------------8-7\5/7--| 

|----------------------|----------------------| 
|----------------------|----------------------| 
|----------------------|----------------------| 
|----------------------|----------------------| gtr 2 
|-0-1\0/2-2\1/3-2\1/2--|-0-1\0/2-2\1/8-7\5/7--| 
|-0-1\0/2-2\1/3-2\1/2--|-0-1\0/2-2\1/8-7\5/7--| 


Riff 3 (1:04) play 4 times 
|-----------------------------------| 
|-----------------------------------| 
|-----------------------------------| 
|-7-7-9-10-----10-9-----------------| 
|-5-5-7-8--8-8-8--7-5-5-5-5-5-5-5-5-| 
|----------8-8------5-5-5-5-5-5-5-5-| 

Riff 2 x 1 (1:20) 

End (1:28) 
|---| 
|---| 
|---| 
|---| 
|-5-| 
|-5-|
Добавлено: 21.11.2013
Другие материалы по этой песне:
  • Аккорды и текст

Страница создана 09.06.2013
http://primanota.ru/captain-cleanoff/aod-chords.htm
Привет, Гость.
Предлагаем пройти революционный курс по гитаре.
Подарок от PrimaNota.Ru, забирай!