PrimaNota.ru - самый крупный в мире бесплатный архив песенных текстов, аккордов, табулатур и нот


Captain Cleanoff - Adidas - таба, видео

Регистрация Запомнить меня
Войти через:  Facebook Google Twitter Vk Yandex Mail.ru

Captain Cleanoff - Adidas - таба, видео

Печатать
Просмотров: 104
Band: Captain Cleanoff
Song: ADIDAS
Album: Captain Cleanoff
Label: No Escape




Version 2.0 (25/7/2006)

Tuning: C# G# C# F# A# D#


b = bend                p = pull off
h = half                h = hammer on
f = full                q = quarter
r = release             t = tap
/ = slide up            \ = slide down
ah = atificial harmonic  ~ = vibrato




Riff 1

(0:00-0:07)
|--------------------------------------------------------------|
|--------------------------------------------------------------|
|--------------------------------------------------------------|
|--------------------------------------------------------------|
|-----------------1111------------------------------------1-3--|
|-0000111144443333----3333444433330000111144443333444433331-3--|

|--------------------------------------------------------------|
|--------------------------------------------------------------|
|--------------------------------------------------------------|
|-------------------------------------------------444433331h3--|
|-----------------1111-----------------------------------------|
|-0000111144443333----3333444433330000111144443333-------------|



Riff 2

(0:07-0:23)
|-------------------------------------|
|-------------------------------------|
|-------------------------------------|
|-------------------4-4-4-4-----------|
|-0-0-0-0--3-3-3-3--2-2-2-2--6-6-6-6--|
|-0-0-0-0--3-3-3-3-----------6-6-6-6--|



Repeat riff 1 (0:23-0:31)


Riff 3a

(0:32-0:35)
|--------------------------------------|
|--------------------------------------|
|--------------------------------------|
|-----4444-----3333-----4444-----3333--|
|-0-1------0-1------0-1------0-1-------|
|-0-1------0-1------0-1------0-1-------|
  . .      . .      . .      . .


Riff 3b

(0:36-0:39)
|--------------------------------------|
|--------------------------------------|
|--------------------------------------|
|-----4444-----3333-----4444-----3333--|Gtr1
|-0-1------0-1------0-1------0-1-------|
|-0-1------0-1------0-1------0-1-------|
  . .      . .      . .      . .
|--------------------------------------|
|--------------------------------------|
|-----2222-----1111-----2222-----1111--|
|--------------------------------------|Gtr2
|-0-1------0-1------0-1------0-1-------|
|-0-1------0-1------0-1------0-1-------|
  . .      . .      . .      . .


Riff 4

(0:40-0:54)
|---------------------------------------------------------------------------|
|---------------------------------------------------------------------------|
|---------------------------------------------------------------------------|
|---------------------------------------------------------------------------|
|-0-00-4-4--0-00-33-0-00--4-4--0-00-1-1--0-00-44-0-00-33-0-00-4-4--0-00-3\1-|
|-0-00-4-4--0-00-33-0-00--4-4--0-00-1-1--0-00-44-0-00-33-0-00-4-4--0-00-3\1-|





Repeat Riff 3a (0:55-0:58)

Repeat Riff 3b (0:59-1:02)



Ending

(1:03-1:04)
|------|
|------|
|------|
|------|
|-0-0--|
|-0-0--|
  . .

End.
Добавлено: 07.11.2013
Другие материалы по этой песне:

Страница создана 07.11.2013
http://primanota.ru/captain-cleanoff/adidas-chords.htm
Привет, Гость.
Предлагаем пройти революционный курс по гитаре.
Подарок от PrimaNota.Ru, забирай!