PrimaNota.ru - самый крупный в мире бесплатный архив песенных текстов, аккордов, табулатур и нот


Captain Beyond - Myopic Void - таба, видео

Регистрация Запомнить меня
Войти через:  Facebook Google Twitter Vk Yandex Mail.ru

Captain Beyond - Myopic Void - таба, видео

Печатать
Просмотров: 74
song: myopic void
band: captain beyond
album: captain beyond
tabbed by: joel (j_sorensson@hotmail.com)

Standard tuning.

A for a long time.

Then:
A C D A

lead kind of guitar:
e------------------------------------------
b------------------------------------------
g-6----------9-------------11--------9-----
d---7----------10-------------12------10---
a-----7--7/10-----10--10/12------12-----10-
e------------------------------------------


Then re-use the riff from armworth:
e----------------------------------
b----------------------------------
g----9-----9-----11---11-----------
d----7-----7------9----9-----------
a-0----0-0---0-0-------------------
e--------------------------0-0-3-0-
continued.
e-----------------------------------
b----------------------------------- (An acoustic guitar
g-----9-----9-----12---12---11-11---  plays the riff below
d-----7-----7-----10---10----9--9---  in the background.)
a-0-0---0-0---0-0----0----0---------
e-----------------------------------


I think the acoustic plays something this.
e-----------------------------------------
b-----------------------------------------
g-9-9-9-9-9-9-9-9-11-11-11-11-11-11-11-11-
d-7-7-7-7-7-7-7-7--9--9--9--9--9--9--9--9-
a-0-0-0-0-0-0-0-0--0--0--0--0--0--0--0--0-
e-----------------------------------------
continued.
e-----------------------------------------
b-----------------------------------------
g-9-9-9-9-9-9-9-9-12-12-12-12-11-11-11-11-
d-7-7-7-7-7-7-7-7-10-10-10-10--9--9--9--9-
a-0-0-0-0-0-0-0-0--0--0--0--0--0--0--0--0-
e----------------------------------------

Riff:
e-----------------------------------------
b-----------------------------------------
g-9-7----------7-5----------5-5-5-7-7-7-2-
d-----9-8-7--------7-6-5----5-5-5-7-7-7-2-
a-----------10-----------8--3-3-3-5-5-5-0-
e-----------------------------------------

Now play this cool variation:
e----------------------------------
b----------------------------------
g----9-----9-----9-----9-9---------
d----7-----7-----7-----7-7-5trill7-
a-0----0-0---0-0---0-0-------------
e----------------------------------
continued.
e-----------------------------------
b-----------------------------------
g-----9-----9-----9-----------------
d-----7-----7-----7-----7-5---------
a-0-0---0-0---0-0---0-0-----7-5-----
e-------------------------------8---

.void?. comments? questions? corrections? pics of cheese?
mail me.

_________________________________________________________________
     
Добавлено: 26.07.2013
Другие материалы по этой песне:
  • Аккорды и текст

Страница создана 26.07.2013
http://primanota.ru/captain-beyond/myopic-void-chords.htm
Привет, Гость.
Предлагаем пройти революционный курс по гитаре.
Подарок от PrimaNota.Ru, забирай!