PrimaNota.ru - самый крупный в мире бесплатный архив песенных текстов, аккордов, табулатур и нот


Captain Beyond - Mesmerization Eclipse - таба, видео

Регистрация Запомнить меня
Войти через:  Facebook Google Twitter Vk Yandex Mail.ru

Captain Beyond - Mesmerization Eclipse - таба, видео

Печатать
Просмотров: 95
Авторы: Rod Evans, Bobby Caldwell

song: mesmerization eclipse
band: captain beyond
album: captain beyond
tabbed by: joel (j_sorensson@hotmail.com)

Tuning: Slightly above standard if you wanna jam to the record.



Main riff:  7/8 beat
e-----------------
b----------------- Kind of like this.
g---------3-3---5- If you can play a song
d-5---3-5-3-3-3-5- in 7/8 you can most
a-5-x-----1-1-3-3- surely get this right.
e-3-----------1---

Then play the riff in A#m. (One and a half step up.)

Chorus:  4/4 beat
e-------------------------
b-------------------------
g-------------------------
d-----------------3-------
a-5--5-3-5--5-3-5---5-1-3-
e-------------------------


D          A         G     F   G  E
On earth, sudden daylight blew my time
A              B  C         D  E             G E
Things got lost,  oh so lost -Now I'm out of time



Funky riff:  5/8 and 6/8 beat
e-----------------------------
b-----------------------------
g-----------2------------22---
d-2---2-0---0--2---2-0---00---
a-0-3-----3----0-3-----3----3-
e-----------------------------


Bridge:  6/8 beat
e--------------------------------------------
b--------------------------------------------
g--------------------------------------------
d-----7-----------5-----------3--------------
a---7---7---7---5---5---5---3---3---3--5--6--
e-5-------5---3-------3---1-------1----3--4--


Ending riff: 7/8 beat again
e-----------------
b-----------------
g---------5-5---7-
d-7----7--5-5-5-7-
a-7-77----3-3-5-5-
e-5-55--------3---

.mesmerizing. comments? corrections? questions? pics of cheese?
mail me.

_________________________________________________________________
     
Добавлено: 24.11.2013
Вам также может быть интересно:
Другие материалы по этой песне:
  • Аккорды и текст

Страница создана 24.11.2013
http://primanota.ru/captain-beyond/mesmerization-eclipse-chords.htm
Привет, Гость.
Предлагаем пройти революционный курс по гитаре.
Подарок от PrimaNota.Ru, забирай!