PrimaNota.ru - самый крупный в мире бесплатный архив песенных текстов, аккордов, табулатур и нот


Captain Beyond - I Cant Feel Nothing Part Ii - таба, видео

Регистрация Запомнить меня
Войти через:  Facebook Google Twitter Vk Yandex Mail.ru

Captain Beyond - I Cant Feel Nothing Part Ii - таба, видео

Печатать
Просмотров: 143
Уроки эстрадного вокала в Санкт-Петербурге
song: i can't feel nothing (part II)
band: captain beyond
album: captain beyond
tabbed by: joel (j_sorensson@hotmail.com)

tuning is standard.


intro: (4/4 beat -its true!)
e----------------------------------------------
b----------------------------------------------
g-5--4-------5--4-------5--4--------------5--4-
d-5--4-------5--4-------5--4------ARGH!---5--4-
a-3--2-------3--2-------3--2--------------3--2-
e----------------------------------------------

Main riff:
e-------------------------
b-------------------------
g-------------------5--4--
d-------4------4----5--4--
a-------------------3--2--
e-2-2-2----2-2---2--------

Then play the same thing in A End on a C

Ending:
e---------   ----------------------------------------------------------
b---------   ----------------------------/15-15-15-/15-15-15-/15-15-15-
g---------   --------10-10--12-12--13-13-------------------------------
d-12--10--   -12-12----------------------------------------------------
a---------   ----------------------------------------------------------
e---------   ----------------------------------------------------------


.sweet. comments? questions? corrections? pics of cheese?
mail me.

_________________________________________________________________
     
Добавлено: 27.06.2013
Другие материалы по этой песне:
  • Аккорды и текст

Страница создана 27.06.2013
http://primanota.ru/captain-beyond/i-cant-feel-nothing-part-ii-chords.htm
Привет, Гость.
Предлагаем пройти революционный курс по гитаре.
Подарок от PrimaNota.Ru, забирай!