PrimaNota.ru - самый крупный в мире бесплатный архив песенных текстов, аккордов, табулатур и нот


Captain Beyond - I Cant Feel Nothing - таба, видео

Регистрация Запомнить меня
Войти через:  Facebook Google Twitter Vk Yandex Mail.ru

Captain Beyond - I Cant Feel Nothing - таба, видео

Печатать
Просмотров: 187
song: i can't feel nothing (part I)
band: captain beyond
album: captain beyond
tabbed by: joel (j_sorensson@hotmail.com)

tuning is standard.

Intro:
e-----------------------------------
b-----------------------------------
g-10-10---10------------------------
d-10-10---10-----------------3-2----
a--8--8----8------2-5---2-5------5--
e---------------3-----3-------------

More intro:
e-------------------------------------------------------
b-------------------------------------------------------
g-------5-5---------------------------------------------
d-----0-3-3-----0---------------------------------------
a-0-3-------0-3---3-3--3-3-3-4-4-4-5-5-5-6-6-6-7-\--0-3-
e-----------------1-1--1-1-1-2-2-2-3-3-3-4-4-4-5-\------


Verse:
e-------------------------------------------
b-------------------------------------------
g-------------------------------------------
d-3-0-----0---------------3-2-3-------------
a-----0-3------2-5---2-5--------5-3-5---0-3-
e------------3-----3------------------------


Chorus:	(lead plays the notes E & B)
e-------------------------------------------
b-----8-------------------------------------
g-----7-------------------------------------
d-----6----------5-2--------------------5-2-
a-----7----2-5-2---------5-5/7----2-5-2-----
e-0-0----3-----------0h3--------3-----------


Break:
e---------------------------------
b---------------------------------
g-----------------------2---------
d-4-2---------------4-2---4-2-----
a-----3-2-0-------------------3-2-
e-----------2-1-0-----------------

C5 B5

Riff to return:
e-------------------------
b-------------------------
g-------------------5--4--
d-------4------4----5--4--
a-------------------3--2--
e-2-2-2----2-2---2--------

Then play the same thing in A End on a C


.funky. comments? questions? corrections? pics of cheese?
mail me.

_________________________________________________________________
     
Добавлено: 05.07.2013
Другие материалы по этой песне:
  • Аккорды и текст

Страница создана 05.07.2013
http://primanota.ru/captain-beyond/i-cant-feel-nothing-chords.htm
Привет, Гость.
Предлагаем пройти революционный курс по гитаре.
Подарок от PrimaNota.Ru, забирай!