PrimaNota.ru - самый крупный в мире бесплатный архив песенных текстов, аккордов, табулатур и нот


Captain Beyond - Frozen Over - таба, видео

Регистрация Запомнить меня
Войти через:  Facebook Google Twitter Vk Yandex Mail.ru

Captain Beyond - Frozen Over - таба, видео

Печатать
Просмотров: 105
song: frozen over
band: captain beyond
album: captain beyond
tabbed by: joel (j_sorensson@hotmail.com)

Standard tuning.

As for the difference between 6/8 and 3/4, its basicly
about wich beats are emphasized. In 6/8 it is most
common to accent the 1 & 4, whilst in 3/4 it would be
the 1,3 and 5 quavers. (Think of the chorus to "hold
the line".)

I havn't bothered to tab all leads.

intro: 4/4
e--------------------------
b--------------------------
g-9-9----7----4-4----5-----
d-9-9----7----4-4----5--5--
a-7-7----5----2-2----3--5--
e-----------------------3--

verse riff: 6/8 & 3/4 beat
e----------------------------------------------
b----------------------------------------------
g----------------------------------------------
d-------4-(2)-------4-(2)-------4-(2)----------
a-------------------------------------2--3--4--
e-2-2-2-------2-2-2-------2-2-2----------------


in between riff: 4/4 beat
e---------------------
b---------------------
g-------------2---2---
d-----------4---4---4-
a---------4-----------
e-2-5-2-5-------------

chorus lead:		chorus rythm:
e-5---2-----------	e-----------------
b---------2---5---	b-----------------
g-----------------	g-7---4-----------
d-----------------	d-7---4---4---7---
a-----------------	a-5---2---4---7---
e-----------------	e---------2---5---

Then play C5 D5 D#5 E5 F5 F#5 G5 G#5

Solo background:  6/8 & 3/4 beat
e----------------------------------------------
b----------------------------------------------
g----------------------------------------------
d----------------------------------------------
a-------------3-----------------------6--5--3--
e-3-5-5-5-5-5---5-5-5-5-5-3-5-5-5-5-5----------


Pre-funk thing:  Don't know what time sig.
e-----------------------------------------------
b-----------------------------------------------
g-2-4-----4-5-----5-7-----7-10------10-12-------
d-----0-2-----3-5-----5-7------7-10-------10-12-
a-----------------------------------------------
e-----------------------------------------------
cont.
e--------------------------------
b--------------------------------
g-------------------9-9-9-5-7----
d-7-7-7-5--5-5-5-3--9-9-9-5-7----
a-7-7-7-5--5-5-5-3--7-7-7-3-5----
e-5-5-5-3--3-3-3-1---------------


funk: 4/4 beat
e------------------------------------
b-11-11--------11-11-----------------
g-12-12--------12-12-----------------
d-12-12--------12-12--121212-101010--
a-------101010--------101010--8-8-8--
e------------------------------------


End with acoustic guitars playing A & G

.cool. comments? questions? corrections? pics of cheese?
mail me.

_________________________________________________________________
     
Добавлено: 26.11.2013
Другие материалы по этой песне:
  • Аккорды и текст

Страница создана 26.11.2013
http://primanota.ru/captain-beyond/frozen-over-chords.htm
Привет, Гость.
Предлагаем пройти революционный курс по гитаре.
Подарок от PrimaNota.Ru, забирай!