PrimaNota.ru - самый крупный в мире бесплатный архив песенных текстов, аккордов, табулатур и нот


Captain Beyond - Dancing Madly Backwards - таба, видео

Регистрация Запомнить меня
Войти через:  Facebook Google Twitter Vk Yandex Mail.ru

Captain Beyond - Dancing Madly Backwards - таба, видео

Печатать
Просмотров: 150
song: dancing madly backwards (on a sea of air)
band: captain beyond
album: captain beyond
tabbed by: joel (j_sorensson@hotmail.com)

I've only tabbed the rythm parts, you'll have to do the leads yourself.

Tuning: A bit above normal if you wanna jam with the record.

(__3__ means triplet.)


Intro in 5/8:
e--------------------
b--------------------
g--------------------
d---3-4-5----5-3-----
a---1-2-3----3-1-5\4-
e----------------3\2-

Main riff:
e--------------------------
b--------------------------
g-__3__--------__3__-------  play this many times.
d-5------------5-----------
a---3---1-2-3----3---3-1---
e-----3------------3-----3-


Every now and then play this:
e----------------------------
b----------------------------
g-___3__--------___3__-------
d-10------------10-----------
a----8---6-7-8-----8---8-6---
e------8-------------8-----8-

Main riff ending:
e--------------------------
b--------------------------
g-__3__--------__3__-------
d-5------------5----------- over to...
a---3---1-2-3----3---3-1---
e-----3------------3-----0-



...4/4-bluesy riff.
e----------------------------------
b----------------------------------
g----------------------------------
d-----2-----4------5---5---4-4-----
a-----2-----4------5---5---4-4-----   Slight bend
e-0-0---0-0----0-0---0---0-----3-3-  -to the G's.


In between:
e-------------------------------------------------
b-------------------------------------------------
g-------------------------------------------------
d-------------------------------------------------
a------------------3------------------------------
e-3h5-5-5-5-55-3h5---5p3-5--3h5-5-5-5-55-3h5-3\---


Bridge:
e-------------------------------------------------
b-------------------------------------------------
g-------------------------------------------------
d-------------------------------------------------
a------------------5------------------------------
e-5h7-7-7-7-77-5h7---7p5-7--5h7-7-7-7-77-5h7-5\---


King Crimson sounding riff: (9/8 beat)
e-------------------------------------------------
b-------------------------------------------------
g---------5-----------------------5---5-----------
d-----3-----6-3---------------3-----6---4---5-----
a-2-----4--------4--22----2-----4---------3---4---
e---3------------------3----3-------------------3-

Then a harmony guitar comes in playing the same thing but a major third 
above.
(Beginning on Eb that is.)

End on an A5

.madly. comments? corrections? questions? pics of cheese?
mail me.

_________________________________________________________________
     
Добавлено: 10.11.2013
Другие материалы по этой песне:
  • Аккорды и текст

Страница создана 10.11.2013
http://primanota.ru/captain-beyond/dancing-madly-backwards-chords.htm
Привет, Гость.
Предлагаем пройти революционный курс по гитаре.
Подарок от PrimaNota.Ru, забирай!