PrimaNota.ru - самый крупный в мире бесплатный архив песенных текстов, аккордов, табулатур и нот


Captain Beyond - Armworth - таба, видео

Регистрация Запомнить меня
Войти через:  Facebook Google Twitter Vk Yandex Mail.ru

Captain Beyond - Armworth - таба, видео

Печатать
Просмотров: 149
Уроки эстрадного вокала в Санкт-Петербурге
song: armworth
band: captain beyond
album: captain beyond
tabbed by: joel (j_sorensson@hotmail.com)

tuning: standard.

Main riff:
e----------------------------------
b----------------------------------
g----9-----9-----11---11-----------
d----7-----7------9----9-----------
a-0----0-0---0-0-------------------
e--------------------------0-0-3-0-
continued.
e-----------------------------------
b-----------------------------------
g-----9-----9-----12---12---11-11---
d-----7-----7-----10---10----9--9---
a-0-0---0-0---0-0----0----0---------
e-----------------------------------

I don't have the patience to tab the harmony thing.


Tell me where:
e-------------
b--------0----
g-10----12----
d-12----14----
a--0-----0----
e-------------

Seague into myopic void on an A

.arm?. comments? questions? corrections? pics of cheese?
mail me.

_________________________________________________________________
     
Добавлено: 11.08.2013
Другие материалы по этой песне:
  • Аккорды и текст

Страница создана 11.08.2013
http://primanota.ru/captain-beyond/armworth-chords.htm
Привет, Гость.
Предлагаем пройти революционный курс по гитаре.
Подарок от PrimaNota.Ru, забирай!