PrimaNota.ru - самый крупный в мире бесплатный архив песенных текстов, аккордов, табулатур и нот


Captain Beefheart - Sure Nuff N Yes I Do - текст песни, таба, видео

Регистрация Запомнить меня
Войти через:  Facebook Google Twitter Vk Yandex Mail.ru

Captain Beefheart - Sure Nuff N Yes I Do - текст песни, таба, видео

Печатать
Просмотров: 241
I play this with slide, but you can also do it without. I'm pretty sure the original is 
played on a slide guitar, and thus, in an open tuning but this is as close as you can 
get with a normal tuning.

INTRO:
e|----------------/5-----|
B|----------------/5-----|
G|-----------------------|
D|-----------------------|
A|------0-/3--0----------|
E|---/3------------------| repeat twice.

"Well I was born in the desert came on up from New Orleans
Came up on a tornado sunlight in the sky"

e|----------------------------------|
B|----/7-----5-5--------------------|
G|----/7-----5-5--------------------|
D|----/7-----5-5----2-2-2-2--2---2--|
A|------------------0-0-3~0--0-0-0--|
E|-----------------------------3~---| repeat twice

"I went around all day with the moon sticking in my eye"
e|--------------------------------------------------------|
B|----/9-9-----/7-/5-/3-----------------------------------|
G|----/9--9-9--/7-/5-/3-----------------------------------|
D|----/9---9---/7-/5-/3---------(2)--(2)--(2)--(2)---0-0--|
A|-----------------------------0----0----0-----0----------|
E|---------------------------/5---/3---/2----/1---0-------|

...and that concludes the basic chord structure of the whole song.
I might do some additional stuff later.

you're welcome :)
tabbed by vagelier
Добавлено: 08.04.2012
Другие материалы по этой песне:
  • Аккорды и текст

Страница создана 07.03.2012
http://primanota.ru/captain-beefheart/sure-nuff-n-yes-i-do-chords.htm
Привет, Гость.
Предлагаем пройти революционный курс по гитаре.
Подарок от PrimaNota.Ru, забирай!