PrimaNota.ru - самый крупный в мире бесплатный архив песенных текстов, аккордов, табулатур и нот


Captain Beefheart - Plastic Factory - текст песни, таба, видео

Регистрация Запомнить меня
Войти через:  Facebook Google Twitter Vk Yandex Mail.ru

Captain Beefheart - Plastic Factory - текст песни, таба, видео

Печатать
Просмотров: 122
INTRO
e------------------|
B------------------|
G------------------|
D--9-9-9-8-8-7--5--|
A--9-9-9-8-8-7--5--|
E--7-7-7-6-6-5--3--|

MAIN RIFF        x8
e-----------------|
B--------3-3------|
G--1-1-1-2-2-7----|
D--2-2-2-----7-7--|
A--2-2-2-----5-7--|
E--0-0-0-------5--|

CHORUS
e------------------|
B------------------|
G------------------|
D--9-9-9-8-8-7--5--|
A--9-9-9-8-8-7--5--|
E--7-7-7-6-6-5--3--|

BACK TO MAIN RIFF 

1.16                    
e--21b-21b---21b-21b-22b---21b-21b---21b-21b-22b--|
B-------------------------------------------------|
G-------------------------------------------------|
D-------------------------------------------------|
A-------------------------------------------------|
E-------------------------------------------------|

1.30                                           X2
e-----------------------------------------------|
B-----------------------------------------------|
G----7-9-7-6-7-6-4-2-3/4-----7-9-7-6-7-6-4-2-4--|
D--7-7-9-7-6-7-6-4-2-3/4---7-7-9-7-6-7-6-4-2-4--|
A--7-5-7-5-4-5-4-2-0-1/2---7-5-7-5-4-5-4-2-0-2--|
E--5-----------------------5--------------------|

Rest of the song is above parts repeated

Any corrections please comment
Thanks
Добавлено: 20.06.2012
Другие материалы по этой песне:
  • Аккорды и текст

Страница создана 11.04.2012
http://primanota.ru/captain-beefheart/plastic-factory-chords.htm
Привет, Гость.
Предлагаем пройти революционный курс по гитаре.
Подарок от PrimaNota.Ru, забирай!