PrimaNota.ru - самый крупный в мире бесплатный архив песенных текстов, аккордов, табулатур и нот


Captain Beefheart - Im Glad - таба, видео

Регистрация Запомнить меня
Войти через:  Facebook Google Twitter Vk Yandex Mail.ru

Captain Beefheart - Im Glad - таба, видео

Печатать
Просмотров: 145
----------------------------------------------------------------------------
              Captain Beefheart & His Magic Band - I'm Glad
----------------------------------------------------------------------------
   from Safe As Milk

  Standard Tuning.Very easy.

  Chords Used; C#m , B#m  , A , G# , G , F#m , D (open chord), D (5th fret), D# , E ,

 Intro
    slow  ( C#m                d u d u d u d u   B#m           )
e|----------4-----4-----4-----4-4-4-4-4-4-4/2-2-----2-----2---------------|
b|------------5-----5-----5---5-5-5-5-5-5-5/3---3-----3-----3-------------|
g|----2---------6-----6-----6-6-6-6-6-6-6-6/4-----4-----4-----4-----------|
d|-2/4-4p0----------------------------------------------------------------|
a|------------------------------------------------------------------------|
E|------------------------------------------------------------------------|

when he sings; "and i'm glad, glad about the goodtimes

e|-2-----2-----4-----4-----5-----5---6-7------|
b|---3-----3-----5-----5-----7-----7-8-9------|
g|-----4-----4-----6-----6-----7-----8-9------|
d|--------------------------------------------|
a|--------------------------------------------|
E|--------------------------------------------|

when he sings; "you went away"
e|-5-4-3-2-2-2-2-2-2-2-2-2-|
b|-5-4-3-2-2-2-2-2-2-3-3-3-|
g|-6-5-4-2-2-2-2-2-2-2-2-2-|
d|-7-6-5-4-4-4-4-4-4-0-0-0-|
a|-7-6-5-4-4-4-4-4-4-0-0-0-|
E|-5-4-3-2-2-2-2-2-2-2-2-2-|

Listen to song for timing/changes. just these three riffs repeated til end.
comments welcome. thanks
Добавлено: 21.03.2012
Другие материалы по этой песне:
  • Аккорды и текст

Страница создана 21.03.2012
http://primanota.ru/captain-beefheart/im-glad-chords.htm
Привет, Гость.
Предлагаем пройти революционный курс по гитаре.
Подарок от PrimaNota.Ru, забирай!