PrimaNota.ru - самый крупный в мире бесплатный архив песенных текстов, аккордов, табулатур и нот


Captain Beefheart - Abba Zabba - бас-таба, видео

Регистрация Запомнить меня
Войти через:  Facebook Google Twitter Vk Yandex Mail.ru

Captain Beefheart - Abba Zabba - бас-таба, видео

Печатать
Просмотров: 217
Este solo es bastante facil y tiene tres partes. El tema esta en Dm, asi que para sacar 
resto del tema, la parte del solo tambien puede ser util.
This solo is quite easy and consists of three parts. The song is on Dm, so in order to 
the rest of the song this might be helpful.


P 1
------------5----------------------------|
------3-5/7---7-3------------------------|
--3h5-------------5-3-5------------------|
-----------------------------------------|

------------5---5------------------------|
------3-5/7---7--------------------------|
--3h5------------------------------------|
-----------------------------------------|

P 2
--7-5------------------------------------|
------7-5-3------------------------------|
------------5-3-5------------------------|
-----------------------------------------|

----7-5--------------------------------------------|
--------7-5-3----------------------------  ->  x 2-|
--5-----------5-3-5--------------------------------|
---------------------------------------------------|

P 3
-----------------------------------------|
----------------3------------------------|
----5---5-3-3h5---5-3-5------------------|
--5---5----------------------------------|

-----------------------------------------|
----------------3------------------------|
----5---5-3-3h5---5-3-5------------------|
--5---5------------------5--3------------|


diego-mod@hotmail.com
Добавлено: 18.03.2012
Вам также может быть интересно:
Другие материалы по этой песне:
  • Аккорды и текст

Страница создана 18.03.2012
http://primanota.ru/captain-beefheart/abba-zabba-chords.htm
Привет, Гость.
Предлагаем пройти революционный курс по гитаре.
Подарок от PrimaNota.Ru, забирай!