PrimaNota.ru - самый крупный в мире бесплатный архив песенных текстов, аккордов, табулатур и нот


Capn Jazz - Ooh Do I Love You - таба, видео

Регистрация Запомнить меня
Войти через:  Facebook Google Twitter Vk Yandex Mail.ru

Capn Jazz - Ooh Do I Love You - таба, видео

Печатать
Просмотров: 153
Уроки эстрадного вокала в Санкт-Петербурге
Cap'n Jazz - Ooh Do I Love You (Acoustic)

this is a tricky one. i'm not sure if this is completely right. figure out the rhythm yourself

number 1
e--0--0--0--0--|
b--0--0--0--0--|
g--9--8--9--8--|
d--9--9--9--9--|
a--7--7--------|
e--------9--9--|
mud muddy slush
slushy lawn
in the inbetween of the winter and spring and the lawn's
long gone

number 2
e--0--0------------0--0----777777777/9-|
b--0--0------------0--0----000000000---|
g--9--8-------9-8--9--8----------------|
d--9--9-------9-9--9--9----999999999---|
a--7--7-----7--------------0----0------|
e---------7--------9--9----------------|
people walking. lotsa people walking over the life in the mud on the sidewalk under my crawl.

number 3 (repeat 3 times)
e--0---777777777/9-|
b--0---000000000---|
g--9---------------|
d--9---999999999---|
a------0----0------|
e--9---------------|
under my crawl

number 4
e--------------|
b--------------|
g------9-----9-|
d----9---9-----|
a--------------|
e--9-------7---|

number 5
e--0--0--0--0--|
b--0--0--0--0--|
g--9--8--9--8--|
d--9--9--9--9--|
a--7--7--------|
e--------9--9--|
mud bubbles pop and
burst breath into the air.
where's the inbetween if everyone's a me. that there tree grew
outta me

number 6
e--0--0------------0--0----777777777/9-|
b--0--0------------0--0----000000000---|
g--9--8-------9-8--9--8----------------|
d--9--9-------9-9--9--9----999999999---|
a--7--7-----7--------------0----0------|
e---------7--------9--9----------------|
people talking. lotsa people talking. i'm hurt. you're hurt. my dad's hurt and haven't 
heard everyone's hurt.

number 7 (repeat 2 times)
e--0---777777777/9-|
b--0---000000000---|
g--9---------------|
d--9---999999999---|
a------0----0------|
e--9---------------|
everyone's hurt

number 8
e--0---7774444-0---|
b--0---0000000-0---|
g--9-----------4---|
d--9---9996666-2---|
a------0--0----0---|
e--9---------------|

number 9
e-------------------------------0-|
b---------------------------------|
g-------------9-----8--2p1-2h4----|
d-----4h6-4-----------------------|
a-7p4-------7---------------------|
e-----------------7---------------|

number 10 (play twice before vocals enter and once after vocals exit)
e--------0--0--|
b--------0--0--|
g--------4--4--|
d-2/4/2--2--2--|
a-0------0-----|
e-----------4--|
sure we're all smiles
seeing reptiles.
birds in bars. we measure up each species in our
heads
barely aware that we're so scared we measure up each species in
our heads

number 11 (the rhythm is very hard to notate so you have to listen to the song to get it right)
e--------------------------|
b--------------------------|
g--------------------------|
d--11-9--6--11-9--6--6/4/2-|
a--0--0--0--0--0--0--0-0-0-|
e--------------------------|
step on that li'l ****er's jaw. snap him in half like a wishbone. think to myself like 
always thinking.

number 12 (no guitar)

i want everything and two of some of this shit

number 13
e--------0--0--|
b--------0--0--|
g--------4--4--|
d-2/4/2--2--2--|
a-0------0-----|
e-----------4--|
find my place in the apehouse.
see myself in their eyes. my fingers on their feet.
my possessive love somewhere in their embrace.

number 14
e--4---0-0--|
b--0---0-0--|
g--4---9-9--|
d--2---9-9--|
a--0--------|
e------9-7--|
my freedom's limitations in their swinging

number 15
e--0--0-|
b--0--0-|
g-------|
d--4--2-|
a--0--0-|
e-------|
and hollering.
i'm singing.
i'm hollering.
i'm singing.
i'm hollering.
i'm singing

number 16
e------------------|
b------------------|
g------9-------9---|
d----9---9---9-----|
a------------------|
e--9-------7-------|
i'm hollering.

number 17 (repeated many times)
e--------------|
b----------(5)-|
g--------------|
d--11--9--6----|
a--0---0--0----|
e--------------|
i'm always bothering.
Добавлено: 06.06.2012
Другие материалы по этой песне:
  • Аккорды и текст

Страница создана 06.06.2012
http://primanota.ru/capn-jazz/ooh-do-i-love-you-chords.htm
Привет, Гость.
Предлагаем пройти революционный курс по гитаре.
Подарок от PrimaNota.Ru, забирай!