PrimaNota.ru - самый крупный в мире бесплатный архив песенных текстов, аккордов, табулатур и нот


Capn Jazz - Forget Who We Are - таба, бас-таба, видео

Регистрация Запомнить меня
Войти через:  Facebook Google Twitter Vk Yandex Mail.ru

Capn Jazz - Forget Who We Are - таба, бас-таба, видео

Печатать
Просмотров: 152
Artist:    Cap'n Jazz
Song:      Forget Who We Are

Tabbed by: D.H. Rowinski
Date:      December 15, 2002


"I can't stand..."
(DRUMS AND BASS ONLY)
g|---|
d|---|
a|-3-|
e|---|


"Swimming eyes..."
(GUITAR 1 ENTERS, BASS STAYS ON C)
e|-------------------------------------------------|
b|-13----13----13-13----13----13----13----13-13-13-|
g|-12----12----12-12----12----12----12----12-12-12-|
d|-10----10----10-10----10----10----10----10-10-10-|
a|-------------------------------------------------|
e|-------------------------------------------------|


Vocals out
(BASS CHANGES)
g|---|---|---|---|
d|---|---|---|---|
a|-7-|---|-3-|-3-|
e|---|-3-|---|---|


(GUITAR 2 ENTERS, BASS BACK TO C, GUITAR 1 SAME)
e|---------------|
b|-12------------|
g|---------12----|
d|-----14--------|
a|---------------|
e|---------------|


"Missed kisses..."
(GUITAR 2)
e|-15------------| (go up to your amp and get some feedback)
b|-----13--------|
g|---------------|
d|---------------|
a|---------15----|
e|---------------|


"We should..."
(GUITAR 2)
e|----------------------------------------------------------------|
b|-13--13--13--13-12--12------------------------------------------|
g|---------------------------12-12--12--12-10-12-10--12-10-12-10--|
d|----------------------------------------------------------------|
a|----------------------------------------------------------------|
e|----------------------------------------------------------------|

(GUITAR 1)
e|---|-------------------------| *** NOTE: he mainly plays the octave  
b|---|-------------------------|     but occasionally picks other 
g|-5-|----5-----5--------------|     notes out of the C chord
d|---|----------------5-----5--|     
a|-3-|-3-----3-----3-----3-----|
e|---|-------------------------|


"Trying so hard..."
(BASS)
g|---|---|---|---|---|---|---| 
d|---|---|---|---|---|---|---|
a|-7-|---|-3-|-3-|-7-|---|---|
e|---|-3-|---|---|---|-3-|-6-|

(GUITAR 2)                                         ___________________________________ ____
                                                  | 1.                                | 2. |
e||----------------------------------------------||-----------------------------------|----|
b||-12-12-12---------------12-12-12--------------||-----------------------------------|-11-|
g||----------12---12-12-12----------12--12-12-12-||-----------------------------------|----|
d||----------------------------------------------||-13-13-13-13-13-13-13-15--15-------|----|
a||----------------------------------------------||-----------------------------------|----|
e||----------------------------------------------||------------------------------15---|----|

Yeah I know it sounds weird to end it on a Bb, but that's what happens.
Apparently they played it in C-tuning, but I tabbed it out standard
for convenience. Either way man I love this song. It's so full of
energy, makes a great way to open a set. - dhrowins@aol.com
Добавлено: 16.06.2012
Другие материалы по этой песне:
  • Аккорды и текст

Страница создана 16.06.2012
http://primanota.ru/capn-jazz/forget-who-we-are-chords.htm
Привет, Гость.
Предлагаем пройти революционный курс по гитаре.
Подарок от PrimaNota.Ru, забирай!