PrimaNota.ru - самый крупный в мире бесплатный архив песенных текстов, аккордов, табулатур и нот


Caplan Jil - Nathalie Wood - аккорды и текст, видео

Регистрация Запомнить меня
Войти через:  Facebook Google Twitter Vk Yandex Mail.ru

Caplan Jil - Nathalie Wood - аккорды и текст, видео

Печатать
Просмотров: 125
Nathalie Wood
Caplan Jil
NATHALIE WOOD
By Jil Caplan
"A Charmeuse De Serpents"

Words by Jil Caplan
Music by Rene Denoncin

Transcription by
Ludwig Jossieaux (ludwig_jossieaux@yahoo.fr)


There are three guitars who are playing on this song.
The first is playing the Riff 1 with a bottleneck and
a delay effect, the second is playing the intro and
the solo with a delay effect, and the third is a
rythmic guitar with a capo at the third fret.

Riff 1 (Played With A Bottleneck) :
E----------
B---13\6---
G----------
D----------
A----------
E----------

Chords (With capo at 3d Fret): 

  F#m  D   A   Bm  E   C
E--0---1---0---1---3---3---
B--1---1---1---3---3---4---
G--2---2---0---2---0---3---
D--2---3---2---0---0---1---
A--0---3---3---x---2---x---
E--x---1---x---x---3---x---


Intro :
E----------------------------------------------------------------
B----------------------------------------6-8-6---8-6-------------
G-5------------------------------5---7-8-------------8-7---5-----
D---8-8-8-8-8-8-8-8-8-8-8-8-8-8----------------------------------
A----------------------------------------------------------------
E----------------------------------------------------------------
             (riff 1)

Verse 1 :

F#m        D 
Saute...  ressaisis-toi...
A              Bm
Et retombe...  retombe...
D      E 
Tes... poignardee...
F#m   D   
B c'est... 

Verse 2

Chorus :

F#m
Et tu...
D
Tu...
A
Sans...
Bm
Chaque...
D
Mais...
E       F#m  
Meme... de desespoir...
D                   F#m 
Comme Nathalie Wood
D                   
Comme Nathalie Wood

Verse 3 
Verse 4 

Chorus

Bridge :

C                                      
Et quand...
A                          
Alors...
E                 F#m             
Juste histoire... que la vie...
D            F#m
Nathalie Wood
D            F#m
Nathalie Wood

Chorus 

Outro : Riff 1
     
Добавлено: 25.06.2013
Другие материалы по этой песне:
  • Аккорды и текст

Страница создана 25.06.2013
http://primanota.ru/caplan-jil/nathalie-wood-chords.htm
Привет, Гость.
Предлагаем пройти революционный курс по гитаре.
Подарок от PrimaNota.Ru, забирай!