PrimaNota.ru - самый крупный в мире бесплатный архив песенных текстов, аккордов, табулатур и нот


Capitao Fausto - Litoral - таба, видео

Регистрация Запомнить меня
Войти через:  Facebook Google Twitter Vk Yandex Mail.ru

Capitao Fausto - Litoral - таба, видео

Печатать
Просмотров: 100
Capitão Fausto - Litoral
Tab by theFlavio


Intro
e|-----------------------------------------------|
B|-----------------------------------------------|
G|-9999999999999999--6666--7777--666--44444444---|
D|-xxxxxxxxxxxxxxxx--xxxx--xxxx--xxx--xxxxxxxx---|
A|-7777777777777777--4444--5555--444--22222222---|
E|-----------------------------------------------|

e|----------------------------------------------------------|
B|----------------------------------------------------------|
G|-131313--11111111-9999--6666--777--9999--11111111--7777---|
D|-x-x-x---x-x-x-x--xxxx--xxxx--xxx--xxxx--x-x-x-x---xxxx---|
A|-111111--9-9-9-9--7777--4444--555--7777--9-9-9-9---5555---|
E|----------------------------------------------------------|


Verse
e|---------------------------------|
B|---------------------------------|
G|--9----6-6-7-7----6-6-7-7---4----|
D|--9----6-6-7-7----6-6-7-7---4----|
A|--7----4-4-5-5----4-4-5-5---2----|
E|---------------------------------|

e|------------------------------------------|
B|------------------------------------------|
G|--9----7-7-9-9---6-6-7-7---6-6-7-7---4----|
D|--9----7-7-9-9---6-6-7-7---6-6-7-7---4----|x2
A|--7----5-5-7-7---4-4-5-5---4-4-5-5---2----|
E|------------------------------------------|

e|------------------------------------------|
B|------------------------------------------|
G|--9----7-7-9-9---6-6-7-7---6-6-7-----4----|
D|--9----7-7-9-9---6-6-7-7---6-6-7-6---4----|
A|--7----5-5-7-7---4-4-5-5---4-4-5-6---2----|
E|---------------------------------4--------|


Chorus
e|---------------------------------|
B|---------------------------------|
G|----------6----------4-----------|
D|----------6----------4-----------|
A|----------4----------2-----------|
E|---------------------------------|

chorus end
e|---------------------------------|
B|---------------------------------|
G|----6----7--7--7--7--------------|
D|----6----7--7--7--7--------------|
A|----4----5--5--5--5--------------|
E|---------------------------------|
Добавлено: 08.07.2015
Другие материалы по этой песне:
  • Аккорды и текст

Страница создана 08.07.2015
http://primanota.ru/capitao-fausto/litoral-chords.htm
Привет, Гость.
Предлагаем пройти революционный курс по гитаре.
Подарок от PrimaNota.Ru, забирай!