PrimaNota.ru - самый крупный в мире бесплатный архив песенных текстов, аккордов, табулатур и нот


Capharnaum - Perpetuate Catatonia - таба, видео

Регистрация Запомнить меня
Войти через:  Facebook Google Twitter Vk Yandex Mail.ru

Capharnaum - Perpetuate Catatonia - таба, видео

Печатать
Просмотров: 134
Уроки эстрадного вокала в Санкт-Петербурге
This isent my tab but it wosent on this site so yeah credit to hu ever did it!!

artist = capharnaum
album = fractured
song = perpetuate catatonia


SEVEN STRING GUITAR!!!!!!!


.  - palm mute           /  - slide up to
  - slide down to       ~  - vibrato
h  - hammer on           b  - Bend
p  - pull off            Suffixes for bend
t  - tap                 f  - full bend    h - half bend
ph - pinched harmonic    q  - quarter bend t - tap bend
*  - see comment         ^  - Hold bend    r release bend
x  - Stuccatto           ~  - vibrato bend
,  - slight palm mute    () - ghost note, sustained note
"  - tremolo note        <> - Trill
nh - natural harmonic    .  - (above note) staccato

Notes : This song is amazingly technical so dont expect the tab
        to be perfect!

Tuning: Bb Eb Ab Db Gb Bb Eb


Riff A:
                     ________________________
                                            1|
|-------------------|-------------------------|
|-------------------|-------------------------|
|-------------------|-------------------------|
|-------------------|-------------------------|
|-------55-------22-|-------------------------|
|-------------------|---------------2---------|
|-0-0-0----3-3-3----|-0-1-3-4-3-4-6---4-3-1-0-|
  . . .    . . .      . . . . . . .   . . . .
 __________________
                  2|
|-------------------|
|-------------------|
|-------------------|
|-------------------|
|-------1--------2--|
|-------------------|
|-0-0-0----0-0-0----|
  . . .    . . .


Riff B: Second time, the first bar is harmonized in fifths.

                           __________________
                                          1,2|
|-------------------------|-------------------|
|-------------------------|-------------------|
|-------------------------|-------------------|
|-------------------------|-------------------|
|-7h8p7-------------------|-------1--------2--|
|-------9-7-6h7p6-4-------|-------------------|
|-------------------6-4-3-|-0-0-0----0-0-0----|
        . .       . . . .   . . .    . . .
 ________________________
                        3|
|-------------------------|
|-------------.-----------|
|----------7810-----------|
|-------679---------------|
|----568-------------.----|
|-457-----------3----2----|
|---------------1----0----|
                .


Riff C1:

|Gtr1
|------------------------|------------------------|
|------------------------|------------------------|
|------------------------|------------------------|
|------------------------|------------------------|
|-------556--9p6p5-6p5p3-|------------------------|
|------------------------|------------------------|
|-3-4-6------------------|-6--6--6--6--6--6--6--6-|
| . . . ...              | .  .  .  .  .  .  .  . |
|Gtr2                    |                        |
|------------------------|------------------------|
|------------------------|------------------------|
|------------------------|------------------------|
|------------------------|------------------------|
|------------------------|-------889-12p9p8-9p8p6-|
|------------------------|------------------------|
|-3--3--3--3--3--3--3--3-|-6-7-9------------------|
  .  .  .  .  .  .  .  .   . . . ...


|Gtr1
|------------------------|------------------------|
|------------------------|------------------------|
|------------------------|-------------------.----|
|------------------------|---------------91012----|
|-------556--9p6p5-6p5p3-|----------8911----------|
|------------------------|-----7810---------------|
|-3-4-6------------------|-679--------------------|
| . . . ...              | ... .. . .. . . . .    |
|Gtr2                    |                        |
|------------------------|------------------------|
|------------------------|-------------------.----|
|------------------------|---------------7-810----|
|------------------------|----------67-9----------|
|------------------------|-----56-8---------------|
|------------------------|-457--------------------|
|-3--3--3--3--3--3--3--3-|------------------------|
  .  .  .  .  .  .  .  .   . . . ...


|Gtr1
|------------------------|------------------------|
|------------------------|------------------------|
|------------------------|------------------------|
|------------------------|------------------------|
|-------556--9p6p5-6p5p3-|------------------------|
|------------------------|------------------------|
|-3-4-6------------------|-6--6--6--6--6--6--6--6-|
| . . . ...              | .  .  .  .  .  .  .  . |
|Gtr2                    |                        |
|------------------------|------------------------|
|------------------------|------------------------|
|------------------------|------------------------|
|------------------------|------------------------|
|------------------------|-------889-12p9p8-9p8p6-|
|------------------------|------------------------|
|-3--3--3--3--3--3--3--3-|-6-7-9------------------|
  .  .  .  .  .  .  .  .   . . . ...


|Gtr1
|------------------------|--------------------------|
|------------------------|--------------------------|
|------------------------|--------------------------|
|------------------------|--------------------------|
|-------556--9p6p5-6p5p3-|-----11111111----10101010-|
|------------------------|--------------------------|
|-3-4-6------------------|-8899--------8888---------|
| . . . ...              | ....        ....         |
|Gtr2                    |                          |
|------------------------|--------------------------|
|------------------------|--------------------------|
|------------------------|--------------------------|
|------------------------|------9-9-9-9-----8-8-8-8-|
|------------------------|--------------------------|
|------------------------|-6677--------6666---------|
|-3--3--3--3--3--3--3--3-|--------------------------|
  .  .  .  .  .  .  .  .   ....        ....


Riff C2: Both Guitars.  Play the part within the double bars with
         the necessary endings and then play the additional bar
        at the end.

                          _______________________
                                              1,3|
||------------------------|------------------------|
||------------------------|------------------------|
||------------------------|------------------------|
||------------------------|------------------------|
||-------556--9p6p5-6p5p3-|-------889-12p9p8-9p8p6-|
||------------------------|------------------------|
||-3-4-6------------------|-6-7-9------------------|
   . . . ...                . . . ...
 _______________________
                       2|
|------------------------||------------------------|
|------------------------||------------------------|
|-------------------.----||------------------------|
|---------------91012----||------------------------|
|----------8911----------||-------556--9p6p5-6p5p3-|
|-----7810---------------||------------------------|
|-679--------------------||-3-4-6------------------|
  ... .. . .. . . . .       . . . ...


Riff D:             _________________  _________________
                                1,2,3|                 4|
|------------------|------------------|------------------|
|------------------|------------------|------------------|
|------------------|------------------|------------------|
|-----6666---------|-----9999----4444-|-9-/-12--11-------|
|-2222----22225555-|---------5555-----|------------------|
|------------------|-4444-------------|-7-/-10---9--x--5-|
|------------------|------------------|-------------x--3-|
  ................   ................


Riff E:

|Gtr1
|---------------------|---------------------|---------------------|
|---------------------|---------------------|---------------------|
|---------------------|---------------------|---------------------|
|-------67899p8p7-----|-------67899p8p7-----|-------67899p8p7-----|
|6/78910--------10987-|6/78910---------10987|6/78910---------10987|
|---------------------|---------------------|---------------------|
|---------------------|---------------------|---------------------|
|. ... .....     .... |. ... .....      ....|. ... .....      ....|
|Gtr2                 |                     |                     |
|---------------------|---------------------|---------------------|
|---------------------|---------------------|---------------------|
|---------------------|---------------------|---------------------|
|-------56788p7p6-----|-------56788p7p6-----|-------56788p7p6-----|
|5/678-9---------9876-|5/678-9----------9876|5/678-9----------9876|
|---------------------|---------------------|---------------------|
|---------------------|---------------------|---------------------|
 . ... .....     ....  . ... .....      .... . ... .....      ....

|Gtr1
|------------------------|------------------------|
|------------------------|------------------------|
|------------------------|------------------------|
|----------7--8--9-------|---67899p8p7------------|
|-6--7--9----------6/789-|-10---------10987-6/789-|
|------------------------|------------------------|
|------------------------|------------------------|
| .  .  .  .  .  . . ... |  .....      .... . ... |
|Gtr2                    |                        |
|------------------------|------------------------|
|------------------------|------------------------|
|------------------------|------------------------|
|----------6--7--8-------|---56788p7p6------------|
|-5--6--8----------5/678-|--9----------9876-5/678-|
|------------------------|------------------------|
|------------------------|------------------------|
  .  .  .  .  .  . . ...    .....      .... . ...

|Gtr1
|------------------------|------------------------|
|------------------------|------------------------|
|------------------------|------------------------|
|---67899p8p7------------|---67899p8p7------------|
|-10---------10987-6/789-|-10---------10987-6--7--|
|------------------------|------------------------|
|------------------------|------------------------|
|  .....      .... . ... |  .....      .... .  .  |
|Gtr2                    |                        |
|------------------------|------------------------|
|------------------------|------------------------|
|------------------------|------------------------|
|---56788p7p6------------|---56788p7p6------------|
|--9----------9876-5/678-|--9----------9876-5--6--|
|------------------------|------------------------|
|------------------------|------------------------|
   .....      .... . ...    .....      .... .  .

|Gtr1
|------------------------|
|------------------------|
|------------------------|
|----7--8--9--9----------|
|-9-------------10--9--6-|
|------------------------|
|------------------------|
| .  .  .  .  .  .  .  . |
|Gtr2                    |
|------------------------|
|------------------------|
|------------------------|
|----6--7--8--8----------|
|-8--------------9--8--5-|
|------------------------|
|------------------------|
  .  .  .  .  .  .  .  .


Riff F:

|-----------------|-------------------|-----------------|
|-----------------|-------------------|-----------------|
|-----------------|-------------------|-----------------|
|-----------------|-------------------|-----------------|
|-8-------8-------|-------------------|-----------------|
|-6-6-6-6-6-6-6-6-|-/9-86----/9-86----|-5-------5-------|
|-----------------|------976------976-|-3-3-3-3-3-3-3-3-|
    . . .   . . .      .....    .....     . . .   . . .
 ____________________  __________________________________________
                1,2,3|                                          4|
|---------------------|---------------------|---------------------|
|---------------------|---------------------|---------------------|
|---------------------|---------------------|---------------------|
|---------------91012-|---------------91012-|-109-----------------|
|-986-------8911------|-986-------8911------|----1198-------------|
|----8757810----------|----8757810----------|--------1087-7---2---|
|---------------------|---------------------|-------------5---0---|
  ........ ... .        ........ ... .            ... ...


Solo Backing: Not sure about the second ending as it's quite hard
              to make it out under the solo.


|-----------------|-----------------|-----------------|
|-----------------|-----------------|-----------------|
|-----------------|-----------------|-----------------|
|-----------------|-----------------|-----------------|
|-----------------|-----------------|-----------------|
|-----------------|-----------------|-----------------|
|-0-0-0-0-0-0-0-0-|-0-0-0-0-1-1-1-1-|-3-3-3-3-3-3-3-3-|
  . . . . . . . .   . . . . . . . .   . . . . . . . .
 _____________________________________________________

|-----------------|-----------------|-----------------|
|-----------------|-----------------|-----------------|
|-----------------|-----------------|-----------------|
|-----------------|-----------------|-----------------|
|-----------------|-----------------|-----------------|
|-----------------|-3-3-3-3-3-3-3-3-|-3-3-3-3-3-3-3-3-|
|-3-3-3-3-3-3-3-3-|-----------------|-----------------|
  . . . . . . . .   . . . . . . . .   . . . . . . . .
 __________________________________  _________________
                                  1|
|-----------------|-----------------|-----------------|
|-----------------|-----------------|-----------------|
|-----------------|-----------------|-----------------|
|-----------------|-----------------|-6---6p5---------|
|-----------------|-----------------|-----------3h5h6-|
|-2-2-2-2-2-2-2-2-|-1-1-1-1-1-1-1-1-|-----------------|
|-----------------|-----------------|---3-----3-------|
  . . . . . . . .   . . . . . . . .     .     .
 ____________________________________________________

|-----------------|-----------------|-----------------|
|-----------------|-----------------|-----------------|
|-----------------|-----------------|-----------------|
|-----------------|-8---8p7---------|---------7---7p6-|
|-----------------|-----------3h5h6-|-----------------|
|-3-3-3-3-3-3-3-3-|---3-----3-------|-2-2-2-2---2-----|
|-----------------|-----------------|-----------------|
  . . . . . . . .     .     .         . . . .   .
 ________________
                2|
|-----------------|
|-----------------|
|-----------------|
|---------6---6p5-|
|-----------------|
|-1-1-1-1---1-----|
|-----------------|


Solo: This is merely an outline of what Daniel Mongrain is playing
      and will no doubt contain many, many errors. The bar spacing
      will most probably be miles off so listen to the CD for the
      correct timing.


|-----------------------------|----------------------------|
|-/15~~~~~~~-15p13p12p108h10-|-13p12p10p86h8-12p10p8p65/|
|-----------------------------|----------------------------|
|-----------------------------|----------------------------|
|-----------------------------|----------------------------|
|-----------------------------|----------------------------|
|-----------------------------|----------------------------|


|-----------------------------|----------------------------|
|/10~~~~~~~~~~~~~~~~~~~~--8p6-|-5~~~~~~~~~~~~~~~~~~~~~~~~~-|
|-----------------------------|----------------------------|
|-----------------------------|----------------------------|
|-----------------------------|----------------------------|
|-----------------------------|----------------------------|
|-----------------------------|----------------------------|

               t           t
|-----------t-21p15p14p12-19p14p12p10--------------t-------------|
|-10h12h14h19-------------------------10h12h13h15h17p15p13p12p10|
|----------------------------------------------------------------|
|----------------------------------------------------------------|
|----------------------------------------------------------------|
|----------------------------------------------------------------|
|----------------------------------------------------------------|


|-------------t-----------------------t--------------------|
|8h10h12h13h15p13p12p10p86h8h10h12h13p12p10p8p6-10p8p6p5-|
|----------------------------------------------------------|
|----------------------------------------------------------|
|----------------------------------------------------------|
|----------------------------------------------------------|
|----------------------------------------------------------|


|-----------------------------|----------10------12--------|
|/10~~~~~~~~~~~~~~~~~~~~--8p6-|-5~~~-/10-----/12-----/(20)-|
|-----------------------------|----------------------------|
|-----------------------------|----------------------------|
|-----------------------------|----------------------------|
|-----------------------------|----------------------------|
|-----------------------------|----------------------------|


|-20~~~~~-20191715-19171514-|-------------------------------------|
|---------------------------|-20191715-19171513-------------------|
|---------------------------|-------------------19181614-18161412-|
|---------------------------|-------------------------------------|
|---------------------------|-------------------------------------|
|---------------------------|-------------------------------------|
|---------------------------|-------------------------------------|


|----------------------------------|----------------------------|
|----------------------------------|----------------------------|
|-18161412-16141211-1412119-121197-|-11975-11975-7~~~~~~~~~~~~~-|
|----------------------------------|----------------------------|
|----------------------------------|----------------------------|
|----------------------------------|----------------------------|
|----------------------------------|----------------------------|

            t                    t
|-12h14h15h21p15p14p12-10h12h14h19p14p12p10------------|
|-------------------------------------------1012131210-|
|------------------------------------------------------|
|------------------------------------------------------|
|------------------------------------------------------|
|------------------------------------------------------|
|------------------------------------------------------|


|--------------------------------------|
|-810121312108-------------------------|
|--------------911121412119-7911121197-|
|--------------------------------------|
|--------------------------------------|
|--------------------------------------|
|--------------------------------------|


|---------------------------------|---------------------------------|
|---------------------------------|-------------ph---hold-then-lower|
|---------------------------------|------------------pitch-slightly-|
|-910121412109-7910121097-4579754-|-2457542-----2bh--w/whammy-bar---|
|---------------------------------|---------542---------------------|
|---------------------------------|---------------------------------|
|---------------------------------|---------------------------------|


Outro: All notes (except those on the 7th string) are harmonized
       in octaves.

|------------------|------------------.-|----------------.-|
|------------------|-----------------12-|----------------7-|
|----------------.-|--------------------|------------------|
|----------------9-|---------9-10-12----|---------7-9-10---|
|------------------|--------------------|------------------|
|---------7-8-10---|--------------------|------------------|
|-0-0-0-0----------|-0-0-0-0------------|-8-8-8-8----------|
  . . . . . .  .     . . . . .  .  .      . . . . . .  .
 ________________________  _________________________
                    1,2,3|
|-------------------------|-------------------------|
|-------------------------|-------------------------|
|---------11h12p11--------|---------11h12p11--------|
|-----------------1312109-|-----------------1312109-|
|-------------------------|-------------------------|
|-------------------------|-------------------------|
|-7-7-7-7-----------------|-7-7-7-7-----------------|
  . . . .          . . ..   . . . .          . . ..


|---------------------------------|------------------|
|---------------------------------|------------------|
|-11h12p11--------11h12p11--------|------------------|
|---------1312109---------1312109-|------------------|
|---------------------------------|-.----------------|
|---------------------------------|-2----------------|
|---------------------------------|-0----------------|
           . . ..          . . ..
Добавлено: 27.05.2012
Вам также может быть интересно:
Другие материалы по этой песне:
  • Аккорды и текст

Страница создана 13.03.2012
http://primanota.ru/capharnaum/perpetuate-catatonia-chords.htm
Привет, Гость.
Предлагаем пройти революционный курс по гитаре.
Подарок от PrimaNota.Ru, забирай!