PrimaNota.ru - самый крупный в мире бесплатный архив песенных текстов, аккордов, табулатур и нот


Capharnaum - Perpetual Catatonia - таба, видео

Регистрация Запомнить меня
Войти через:  Facebook Google Twitter Vk Yandex Mail.ru

Capharnaum - Perpetual Catatonia - таба, видео

Печатать
Просмотров: 76
Band: Capharnaum
Album: Fractured
Song: Perpetuate Catatonia




Suffixes for bend:
fb - full bend       hb - half bend
qb - quarter bend    t - tap bend
^ - Hold bend        r - release bend
~ - vibrato bend

Suffixes for harmonic:
ph - pinched harmonic      nh – natural harmonic
ah – artificial harmonic   hh – harp harmonic

Suffixes for mute:
. – palm mute            x – staccato mute
, - light palm mute      ; - heavy palm mute

Other:
/ - slide up to            \ - slide down to       
h - hammer on              p - pull off
‘ - sustained note         * - see comment
" - tremolo note           <> - Trill
L – left channel only      R – right channel only
= - 12 string guitar part 

Tuning A D A D G B E

Riff 1a (0:00)
|-------------------------------------------------|
|-------------------------------------------------|
|-------------------------------------------------|
|-------------------------------------------------|
|-------4-4-4-------1-1-1-------------------------|
|---------------------------------------3---------|
|-1-1-1-------1-1-1-------1-2-4-5-4-5-7---5-4-2-1-|
  . . .       . . .       . . . . . . .   . . . .

Riff 1b (0:02)
|-------------------------------------------|
|-------------------------------------------|
|-------------------------------------------|
|-------------------------------------------|
|-------4-4-4-------1-1-1-------------------|
|-------------------------------7--------8--|
|-1-1-1-------1-1-1-------0-0-0----0-0-0----|
  . . .       . . .       . . .    . . .

Riff 1a x 1 (0:04)
Riff 1b x 1 (0:07)

Riff 2a (0:09)
|--------------------------------------------|
|--------------------------------------------|
|--------------------------------------------|
|--------------------------------------------|
|-8h9p8--------------------------------------|
|-------10-8-7h8p7-5-------------7--------8--|
|--------------------7-5-4-0-0-0----0-0-0----|
        .  .       . . . . . . .    . . .

Riff 2b (0:11)
|--------------------------------------------|
|--------------------------------------------|
|--------------------------------------------|
|--------------------------------------------|
|-8h9p8--------------------------------------| gtr 1
|-------10-8-7h8p7-5-------------7--------8--|
|--------------------7-5-4-0-0-0----0-0-0----|
        .  .       . . . . . . .    . . .
|--------------------------------------------|
|--------------------------------------------|
|-5h6p5--------------------------------------|
|-------7-5----------------------------------| gtr 2
|-----------7h8p7-5--------------------------|
|-------------------9-7-6-------7--------8---|
|-------------------------0-0-0----0-0-0-----|
        . .       . . . . . . .    . . .

Riff 2c (0:14)
|--------------------------------------------------------|
|--------------------------------------------------------|
|--------------------------------------------6-7-9-------|
|--------------------------------------5-6-8-------------|
|-8h9p8--------------------------4-5-7-------------------|
|-------10-8-7h8p7-5-------3-4-6-------------------4--3--|
|--------------------7-5-4-------------------------2--1--|
        .  .       . . . . . . . . . . . . . . . . .  x

Riff 1a x 1 (0:17)
Riff 1b x 1 (0:19)
Riff 1a x 1 (0:21)
Riff 1b x 1 (0:23)
Riff 2a x 1 (0:26)
Riff 2b x 1 (0:28)
Riff 2c x 1 (0:30) but, hold ending chord

Riff 3a (0:35)
|---------------------------------------------------|
|---------------------------------------------------|
|---------------------------------------------------|
|-------------5p2p1---------------------------------|
|-------7-5-4-------7p6p4---------------------------| gtr 1
|---------------------------------------------------|
|-4-4-4-------------------7--7--7--7--7--7--7--7----|
  . . . . . .             .  .  .  .  .  .  .  .
|---------------------------------------------------|
|---------------------------------------------------|
|---------------------------------------------------|
|--------------------------------------8p5p4-5p4p2--|
|-------------------------------9-9-10--------------| gtr 2
|---------------------------------------------------|
|-4--4--4--4--4--4--4--4--7-7-7---------------------|
  .  .  .  .  .  .  .  .  . . . . . .

Riff 3b (0:37)
|----------------------------------------------|
|----------------------------------------------|
|----------------------------------------------|
|-------------5p2p1----------------------8911--|
|-------7-5-4-------7p6p4-----------7810-------| gtr 1
|------------------------------8911------------|
|-4-4-4-------------------7810-----------------|
  . . . . . .             ...  ...  ...  ..
|----------------------------------------------|
|----------------------------------------------|
|----------------------------------------568---|
|-----------------------------------568--------|
|------------------------------457-------------| gtr 2
|-------------------------568------------------|
|-4--4--4--4--4--4--4--4-----------------------|
  .  .  .  .  .  .  .  .  ...  ...  ...  ..

Riff 3a x 1 (0:39)

Riff 3c (0:41)
|-------------------------------------------|
|-------------------------------------------|
|-------------------------------------------|
|-------------5p2p1------------5555----4444-|
|-------7-5-4-------7p6p4-------------------| gtr 1
|--------------------------4455----4444-----|
|-4-4-4-------------------------------------|
  . . . . . .              ....    ....         

|-------------------------------------------|
|-------------------------------------------|
|-------------------------------------------|
|------------------------------8888----7777-|
|-------------------------------------------| gtr 2
|--------------------------7788----7777-----|
|-4--4--4--4--4--4--4--4--------------------|
  .  .  .  .  .  .  .  .   ....    ....

Riff 3a x 1 (0:44)
Riff 3b x 1 (0:46)
Riff 3a x 1 (0:48)
Riff 3c x 1 (0:50)

Fill 1 (0:53)
|------------------|
|------------------|
|-----7777---------|
|-5555-------------|
|---------44445555-|
|------------------|
|------------------|
  ................

Riff 4a (0:54)
|----------------------------------|
|----------------------------------|
|----------------------------------|
|-----5555------------8888----4444-|
|---------11112222--------5555-----|
|-2222------------5555-------------|
|----------------------------------|
  ................................

Riff 4b (0:56)
|----------------------------------|
|----------------------------------|
|----------------------------------|
|-----5555------------8888---------|
|---------11112222--------44445555-|
|-2222------------5555-------------|
|----------------------------------|
  ................................

Riff 4c (0:58)
|-----------------------------------|
|-----------------------------------|
|-----------------------------------|
|-----5555---------9---8------------|
|---------11112222------------------|
|-2222-------------9---8---2---4----|
|--------------------------0---0----|
  ................         .

Riff 4a x 1 (1:00)

Riff 4d x 1 (1:03)
|-----------------------------------|
|-----------------------------------|
|-----------------------------------|
|-----5555--------------------------|
|---------11112222------------------|
|-2222------------------7--------8--|
|-----------------0-0-0----0-0-0----|
  ................. . .    . . .

Riff 4a x 1 (1:05)
Riff 4d x 1 (1:07)
Riff 2a x 1 (1:09)
Riff 2b x 1 (1:12)
Riff 2c x 1 (1:14)


Riff 5a (1:18)
                   [x3]
|---------------------|-------------------|
|---------------------|-------------------|
|---------------------|-------------------|
|-------56788p7p6-----|----------6--7--8--|
|-5/6789---------9876-|-5--6--8-----------| gtr 1
|---------------------|-------------------|
|---------------------|-------------------|
  . ........     ....   .  .  .  .  .  .
                   [x3]
|---------------------|-------------------|
|---------------------|-------------------|
|---------------------|-------------------|
|-------45677p6p5-----|----------5--6--7--|
|-4/5678---------8765-|-4--5--7-----------| gtr 2
|---------------------|-------------------|
|---------------------|-------------------|
  . ........     ....   .  .  .  .  .  .

Riff 5b (1:23)
                   [x3]
|---------------------|--------------------------|
|---------------------|--------------------------|
|---------------------|--------------------------|
|-------56788p7p6-----|----------6--7--8---------|
|-5/6789---------9876-|-5--6--8-----------5/678--| gtr 1
|---------------------|--------------------------|
|---------------------|--------------------------|
  . ........     ....   .  .  .  .  .  .  . ...

                   [x3]
|---------------------|--------------------------|
|---------------------|--------------------------|
|---------------------|--------------------------|
|-------45677p6p5-----|----------5--6--7---------|
|-4/5678---------8765-|-4--5--7-----------4/567--| gtr 2
|---------------------|--------------------------|
|---------------------|--------------------------|
  . ........     ....   .  .  .  .  .  .  . ...

Riff 5a x 1 (1:28)
Riff 5b x 1 (1:32)

Riff 6 (1:37) play 4 times
|----------------------------------------------------------------------------
|----------------------------------------------------------------------------
|----------------------------------------------------------------------------
|--------------------------------------------------------------------------8-
|-7---------7-------------------------------------------------875------7810--
|-7-7-7-7-7-7-7-7-7-/10-97-----/10-98-----6---------6------------764679------
|-------------------------1087-------1087-4-4-4-4-4-4-4-4-4-4----------------
    . . . . . . .       ... ..     ... ..   . . . . .   . . . ............ .

-----|
-----|
-----|
-911-|
-----|
-----|
-----|
 ..

Fill 2 (2:01)
|--------------------|
|--------------------|
|--------------------|
|-98-----------------|
|----1087----1-------|
|--------976-1---3---|
|----------------1---|
  .. . ..... 

Solo begins (2:04)

Riff 7a (2:04)
|------------------------------------------|
|------------------------------------------|
|------------------------------------------|
|------------------------------------------|
|------------------------------------------|
|----------------------4"------2"----1"----|
|-0"------2"--4"---------------------------|
  .       .   .        .       .     .

Riff 7b (2:16) play twice
|----------------------------------------------------------------------------
|----------------------------------------------------------------------------
|----------------------------------------------------------------------------
|----------------------5---5p4---------------7---7p6-------------6---6p5-----
|--------------------------------4h6h7-----------------2h4h5-----------------
|--------------------------------------4"------4-----4-------3"----3-----2"--
|-0"------2"--4"---------4-----4---------------------------------------------
  .       .   .

----------|
----------|
----------|
-5---5p4--|
----------|
---2------|
----------|
   .

Riff 8 (2:28) play 4 times
|---------------------------------------------------------------------|
|------------------------------12-------------7-----------------------|
|----------------------------------------------------11h12p11---------|
|-------------9--------9-10-12---------7-9-10----------------1312109--|
|---------------------------------------------------------------------|
|------7-8-10---------------------------------------------------------|
|-0"--------------0"--------------9"------------7"--------------------|
  .    . .  .     .    .  .  .    .    . .  .   .            . . . .

End (2:28)
|-------------------------------------|
|-------------------------------------|
|-11h12p11--------11h12p11------------|
|---------1312109---------1312109-----|
|-------------------------------------|
|---------------------------------2---|
|---------------------------------0---|
          . . . .         . . . .
End.
Добавлено: 06.10.2013
Другие материалы по этой песне:
  • Аккорды и текст

Страница создана 18.07.2013
http://primanota.ru/capharnaum/perpetual-catatonia-chords.htm
Привет, Гость.
Предлагаем пройти революционный курс по гитаре.
Подарок от PrimaNota.Ru, забирай!