PrimaNota.ru - самый крупный в мире бесплатный архив песенных текстов, аккордов, табулатур и нот


Capharnaum - Ingrained - текст песни, таба, видео

Регистрация Запомнить меня
Войти через:  Facebook Google Twitter Vk Yandex Mail.ru

Capharnaum - Ingrained - текст песни, таба, видео

Печатать
Просмотров: 141
Gtr I (A D A D G B E) - 'Jason Suecof'
Gtr II (A D A D G B E) - 'Daniel Mongrain'
Gtr III (A E A D G B E) - 'Jason Suecof (Lead)'
Gtr IV (A D A D G B E) - 'Daniel Mongrain (Lead)'

   4/4
    Gtrs I, II
    S S S S S S S S S S S S S S S S   S S S S S S S S T T S S  S S  S S  S
||----------------------------------|---------------------------------------|
||----------------------------------|---------------------------------------|
||o---------------------------------|---------------------------------------|
||----------------------------------|---------------------------------------|
||o---------------7-----------------|---------------7-----------------------|
||------6-5-----------8-7-5-------8-|-----6-5---------7h8p7---10---11---10--|
||--0-4-----0-6-7---0-------8-7-4---|-0-4-----0-6-7---------0----0----0-----|


  Gtrs I, II
  S S S S S S S S S S S S S S S S
|---------------------------------|
|---------------------------------|
|---------------------------------|
|---------------------------------|
|---------------7-----------------|
|-----6-5-----------8-7-5-------8-|
|-0-4-----0-6-7---0-------8-7-4---|


 1.                                       2.
                                          2/4
  S S S S S S S S T T S S  S S  S S  S     S S S S S S S S
|---------------------------------------||-----------------|
|---------------------------------------||-----------------|
|--------------------------------------o||-----------------|
|---------------------------------------||-----------------|
|---------------7-------------------10-o||---------------7-|
|-----6-5---------7h8p7---10---11-------||-----6-5---------|
|-0-4-----0-6-7---------0----0----0-----||-0-4-----0-6-7---|


   4/4
    Gtrs I, II
    T T S S  S S  S S  S T T S S  S S  S S  S
||--------------------------------------------|
||--------------------------------------------|
||o-------------------------------------------|
||--------------------------------------------|
||o----------------------------------------10-|
||--7h8p7---10---11---10-7h8p7---10---11------|
||--------0----0----0----------0----0----0----|


  T T S S  S S  S S  S T T S T T S T T S T T S
|------------------------------------------------|
|------------------------------------------------|
|------------------------------------------------|
|------------------------------------------------|
|------------------------------------------------|
|-7h8p7---10---11---10-7h8p7---------------------|
|-------0----0----0----------0-0-0-0-0-0-0-0-0---|


  Gtrs I, II
  T T S S  S S  S S  S T T S S  S S  S S  S
|-------------------------------------------|
|-------------------------------------------|
|-------------------------------------------|
|-------------------------------------------|
|----------------------------------------10-|
|-7h8p7---10---11---10-7h8p7---10---11------|
|-------0----0----0----------0----0----0----|


                       |-3-| |-3-|
  T T S S  S S  S S  S E E E E E E
|------------------------------------||
|------------------------------------||
|-----------------------------------o||
|------------------------------------||
|--------------------------4-3------o||
|-7h8p7---10---11---10-6-5-4-3-6-5---||
|-------0----0----0----4-3-----6-5---||


    T T S S  S S  S S  S T T S S S  S S  S S
||-------------------------------------------|
||-------------------------------------------|
||o------------------------------------------|
||---------------------------------12-8------|
||o-------------------------------------12-8-|
||--7h8p7---10---11---10-7h8p7---------------|
||--------0----0----0----------0-0-----------|


  T T S S  S S  S S  S T T S S S  S S  S S
|--------------------------------------------||
|--------------------------------------------||
|-------------------------------------------o||
|--------------------------------------------||
|--------------------------------12-7-------o||
|-7h8p7---10---11---10-7h8p7----------12-8---||
|-------0----0----0----------0-0-------------||


   6/8
    Gtrs I, II
     T  T T  T  T T S S  S S  S S E.    T  T T  T  T T S S  S S  S S E.
||-----------------------------------|----------------------------------|
||-----------------------------------|----------------------------------|
||o----------------------------------|----------------------------------|
||--12p10p8--------------------------|-12p10p8--------------------------|
||o---------12p10p8-7-8----7----5----|---------12p10p8-7-8----7----5----|
||----------------------12---10---8--|---------------------12---10---7--|
||-----------------------------------|----------------------------------|


  Gtrs I, II
   T  T T  T  T T S S  S S  S S E.    T  T T  T  T T S S  S S  S S E.
|----------------------------------|------------------------------------||
|----------------------------------|------------------------------------||
|----------------------------------|-----------------------------------o||
|-12p10p8--------------------------|-12p10p8----------------------------||
|---------12p10p8-7-8----7----5----|---------12p10p8-7-8----7----5-----o||
|---------------------12---10---8--|---------------------12---10---2----||
|----------------------------------|-------------------------------0----||


   4/4
    Gtrs I, II
    T T S S  S S  S S  S T T S S  S S  S S  S
||--------------------------------------------|
||--------------------------------------------|
||o-------------------------------------------|
||--------------------------------------------|
||o----------------------------------------10-|
||--7h8p7---10---11---10-7h8p7---10---11------|
||--------0----0----0----------0----0----0----|


  T T S S  S S  S S  S S  S S  S S S  S  S
|-------------------------------------------|
|-------------------------------------------|
|-------------------------------------------|
|-------------------------------------------|
|---------------------------8-10------------|
|-7h8p7---10---11---10-----------9------12--|
|-------0----0----0----8-10--------0-10-----|


 4/4
  Gtr I
  T T S S  S S  S S  S T T S S  S S  S S  S
|-------------------------------------------|
|-------------------------------------------|
|-------------------------------------------|
|-------------------------------------------|
|----------------------------------------10-|
|-7h8p7---10---11---10-7h8p7---10---11------|
|-------0----0----0----------0----0----0----|
|
| Gtr II
| T T S S  S S  S S  S T T S S  S S  S S  S
|-------------------------------------------|
|-------------------------------------------|
|-------------------------------------------|
|-------------------------------------------|
|----------------------------------------10-|
|-7h8p7---10---11---10-7h8p7---10---11------|
|-------0----0----0----------0----0----0----|


                                            2/4
  T T S S  S S  S S  S S  S S  S S S  S  S    S  S  S  S  S  S  S  S
|------------------------------------------|-----------------------------||
|------------------------------------------|-----------------------------||
|------------------------------------------|-------------14-15----------o||
|------------------------------------------|-------------------14-15-----||
|---------------------------8-10-----------|-------12-13----------------o||
|-7h8p7---10---11---10-----------9------12-|-----------------------------||
|-------0----0----0----8-10--------0-10----|-12-13-----------------------||
|
| T T S S  S S  S S  S S  S S  S S S  S  S    S  S  S  S  S  S  S  S
|------------------------------------------|-----------------------------||
|------------------------------------------|-------------14-15-----------||
|------------------------------------------|-------14-15-------14-15----o||
|------------------------------------------|-----------------------------||
|---------------------------8-10-----------|----------------------------o||
|-7h8p7---10---11---10-----------9------12-|-14-15-----------------------||
|-------0----0----0----8-10--------0-10----|-----------------------------||


   4/4
    Gtr I
    S  S S  S S S  S  S  S  S  S  S  S  S  S  S  3x
||-----------------------------------------------||
||-----------------------------------------------||
||o---------------------------------14-15-------o||
||----------------------------------------14-15--||
||o------8-10-----------------12-13-------------o||
||------------9------12--------------------------||
||--8-10--------0-10----12-13--------------------||
|
|   Gtr II
|   S  S S  S S S  S  S  S  S  S  S  S  S  S  S  3x
||-----------------------------------------------||
||----------------------------------14-15--------||
||o---------------------------14-15-------14-15-o||
||-----------------------------------------------||
||o------8-10-----------------------------------o||
||------------9------12-14-15--------------------||
||--8-10--------0-10-----------------------------||


                        2/4
                            ~
  S S S S S S S S H      Q  Q
|----------------------|-------|
|----------------------|-------|
|----------------------|-------|
|-3-2-0----------------|-------|
|-------4-1-0----------|-------|
|-------------3-2-3----|-5-----|
|-----------------1----|-3--3--|
|
|                           ~
| S S S S S S S S H      Q  Q
|----------------------|-------|
|----------------------|-------|
|-2--------------------|-------|
|---5-3-2--------------|-------|
|---------5-4----------|-------|
|-------------6-5-3----|-5-----|
|-----------------1----|-3--3--|


   4/4
    Gtrs I, II
    T T T T T T T T S T T T T T T S T T T T T T S S S S
||------------------------------------------------------|
||------------------------------------------------------|
||o-----------------------------------------------------|
||--------------------------------------------------6-7-|
||o---------------------------------------------6-7-----|
||------------------6-------------5---------------------|
||--4-4-4-4-4-4-4-4---4-4-4-4-4-4---4-4-4-4-4-4---------|


  Gtrs I, II
  T T T T T T T T S T T T T T T S T T T T T T S S  S S  4x
|-------------------------------------------------------||
|-------------------------------------------------------||
|------------------------------------------------------o||
|-------------------------------------------------------||
|------------------------------------------------------o||
|-----------------6-------------7-------------9---10----||
|-4-4-4-4-4-4-4-4---4-4-4-4-4-4---0-0-0-0-0-0---0----0--||


    Gtrs I, II
     H.                                   S  S  S  S
||---------------------------------------------------|
||---------------------------------------------------|
||o--------------------------------------------------|
||---------------------------------------------------|
||o--------------------------------------------------|
||---6-----------------------------------------------|
||---4---------------------------------------6-----7-|
|
|   Gtr III
|    S   S  S  S  S  S  S  S  S  S  S  S  S  S  S  S
||---------------------------16----14----------------|
||--14-----16----17----16----------------17----16----|
||o-----13----13----13----13----13----13----13----13-|
||---------------------------------------------------|
||o--------------------------------------------------|
||---------------------------------------------------|
||---------------------------------------------------|
|
|   Gtr IV
|    S   S  S  S  S  S  S  S  S  S  S  S  S  S  S  S
||---------------------------19----17----------------|
||--17-----19----21----19----------------21----19----|
||o-----16----16----16----16----16----16----16----16-|
||---------------------------------------------------|
||o--------------------------------------------------|
||---------------------------------------------------|
||---------------------------------------------------|


   W
|--------------------------------------------------|
|--------------------------------------------------|
|--------------------------------------------------|
|--------------------------------------------------|
|--------------------------------------------------|
|--2-----------------------------------------------|
|--0-----------------------------------------------|
|
|  S  S  S  S  S  S  S  S  S  S  S  S  S  S  S  S
|-17----16----14-----------------------------------|
|-------------------17----16----14----13----14-----|
|----13----13----13----13----13----13----13----13--|
|--------------------------------------------------|
|--------------------------------------------------|
|--------------------------------------------------|
|--------------------------------------------------|
|
|  S  S  S  S  S  S  S  S  S  S  S  S  S  S  S  S
|-21----19----17-----------------------------------|
|-------------------21----19----17----16----17-----|
|----16----16----16----16----16----16----16----16--|
|--------------------------------------------------|
|--------------------------------------------------|
|--------------------------------------------------|
|--------------------------------------------------|


  Gtrs I, II
   H.                                   S  S  S  S
|--------------------------------------------------|
|--------------------------------------------------|
|--------------------------------------------------|
|--------------------------------------------------|
|--------------------------------------------------|
|--6-----------------------------------------------|
|--4---------------------------------------6-----7-|
|
| Gtr III
|  S   S  S  S  S  S  S  S  S  S  S  S  S  S  S  S
|--------------------------16----14----------------|
|-14-----16----17----16----------------17----16----|
|-----13----13----13----13----13----13----13----13-|
|--------------------------------------------------|
|--------------------------------------------------|
|--------------------------------------------------|
|--------------------------------------------------|
|
| Gtr IV
|  S   S  S  S  S  S  S  S  S  S  S  S  S  S  S  S
|--------------------------19----17----------------|
|-17-----19----21----19----------------21----19----|
|-----16----16----16----16----16----16----16----16-|
|--------------------------------------------------|
|--------------------------------------------------|
|--------------------------------------------------|
|--------------------------------------------------|


                           ~~
   H                       H
|-------------------------------------------||
|-------------------------------------------||
|------------------------------------------o||
|-------------------------------------------||
|------------------------------------------o||
|--2----------------------------------------||
|--0-----------------------3----------------||
|
|                                      ~~
|  S  S  S  S  S  S  S  S  S  S  S  S  Q
|-17----16----14----------------------------||
|-------------------17----16----14----13----||
|----13----13----13----13----13----13------o||
|-------------------------------------------||
|------------------------------------------o||
|-------------------------------------------||
|-------------------------------------------||
|
|                                      ~~
|  S  S  S  S  S  S  S  S  S  S  S  S  Q
|-21----19----17----------------------------||
|-------------------21----19----17----16----||
|----16----16----16----16----16----16------o||
|-------------------------------------------||
|------------------------------------------o||
|-------------------------------------------||
|-------------------------------------------||


  Gtrs I, II
   H.       S  S S  S    W
|---------------------|---------------|
|---------------------|---------------|
|---------------------|---------------|
|---------------------|---------------|
|---------------------|---------------|
|--6------------------|--2------------|
|--4-----------6----7-|--0------------|
|
| Gtr III
|  ~~~                   ~~~~~~~~
|  H.       E.      S    Q.    H    E
|---------------------|---------------|
|---------------------|---------------|
|-13-------14------14-|-12------------|
|---------------------|-------14------|
|---------------------|---------------|
|---------------------|---------------|
|---------------------|---------------|


  Gtrs I, II
   H.                               S    S     S    S
|--------------------------------------------------------|
|--------------------------------------------------------|
|--------------------------------------------------------|
|--------------------------------------------------------|
|--------------------------------------------------------|
|--6-----------------------------------------------------|
|--4-------------------------------------6----------7----|
|
| Gtr III
|          |--3--|  |--3--|         |---3---|  |---3---|
|  S   E.  S  S  S  S  S  S  S  E.  S  S    S  S  S    S
|-16------16----------------16-----16--------------------|
|-----20-----17----------------20-----17-----------------|
|---------------18-------------------------18------------|
|------------------18-------------------------18---------|
|---------------------19-16----------------------19---16-|
|--------------------------------------------------------|
|--------------------------------------------------------|
|
| Gtr IV
|  W
|--------------------------------------------------------|
|--------------------------------------------------------|
|--------------------------------------------------------|
|--------------------------------------------------------|
|--------------------------------------------------------|
|--------------------------------------------------------|
|--------------------------------------------------------|


                                        ~~
   H                                    H
|-------------------------------------------------------------------|
|-------------------------------------------------------------------|
|-------------------------------------------------------------------|
|-------------------------------------------------------------------|
|-------------------------------------------------------------------|
|--2----------------------------------------------------------------|
|--0------------------------------------3---------------------------|
|
|                                                ~~~~~
|  |--3---|  |--3--|  |--3--|  |--3--|  |--3--|         |--3--|
|  S   S  S  S  S  S  S  S  S  S  S  S  S  S  S  S  S   S  S  S  E
|-------------------------------------------------------------------|
|-------------------------------------------------------------------|
|-18--17-16-15-17-16-15-14-16-15-14-13-15-14-13S12-13--12-----------|
|---------------------------------------------------------14-13-11--|
|-------------------------------------------------------------------|
|-------------------------------------------------------------------|
|-------------------------------------------------------------------|
|
|                                                       ~~~
|  H.                                                   Q
|-------------------------------------------------------------------|
|-----------------------------------------------------/16-----------|
|-------------------------------------------------------------------|
|-------------------------------------------------------------------|
|-------------------------------------------------------------------|
|-------------------------------------------------------------------|
|-------------------------------------------------------------------|


  Gtrs I, II
    H.                                                               S    S     S    S
|-----------------------------------------------------------------------------------------|
|-----------------------------------------------------------------------------------------|
|-----------------------------------------------------------------------------------------|
|-----------------------------------------------------------------------------------------|
|-----------------------------------------------------------------------------------------|
|---6-------------------------------------------------------------------------------------|
|---4---------------------------------------------------------------------6----------7----|
|
| Gtr III
|   >
|  +W
|-----------------------------------------------------------------------------------------|
|-----------------------------------------------------------------------------------------|
|-----------------------------------------------------------------------------------------|
|-(11)------------------------------------------------------------------------------------|
|-----------------------------------------------------------------------------------------|
|-----------------------------------------------------------------------------------------|
|-----------------------------------------------------------------------------------------|
|
| Gtr IV
|       |--3--|                                             |--3--|  |---3---|  |---3---|
|   S   S  S  S  T  T  T  T  T  T  T  T  T  T  T  T  T  T   S  S  S  S  S    S  S  S    S
|---------16------------------------------------------------------------------------------|
|--17--19----19-17------------------------------------------------------------------------|
|------------------20----------20----------------18---------------------------------------|
|---------------------21-19-21----21-19-18-19-21----19-18-/18------------------18---------|
|-------------------------------------------------------------21-19-18-19---21----21---19-|
|-----------------------------------------------------------------------------------------|
|-----------------------------------------------------------------------------------------|


   W
|--------------------------------------------------------------------------------------|
|--------------------------------------------------------------------------------------|
|--------------------------------------------------------------------------------------|
|--------------------------------------------------------------------------------------|
|--------------------------------------------------------------------------------------|
|--2-----------------------------------------------------------------------------------|
|--0-----------------------------------------------------------------------------------|
|
|  W
|--------------------------------------------------------------------------------------|
|--------------------------------------------------------------------------------------|
|--------------------------------------------------------------------------------------|
|--------------------------------------------------------------------------------------|
|--------------------------------------------------------------------------------------|
|--------------------------------------------------------------------------------------|
|--------------------------------------------------------------------------------------|
|
|  T  T  T  T  T  T  T  S T  T  T T  T T  T  T T  T  T  T T  T  T  S       +S   S  S
|--------------------------------------------------------------------------------------|
|--------------------------------------------------------------------------------------|
|--------------------------------------------------------------------------------------|
|---------------------------------9-11-9-----------------------------------------------|
|-18-16-14----14----14S12-9-11-12--------12-11-9-------11-9----------------------------|
|----------18----18------------------------------14-13------14-13-11b11.5r(11)----11---|
|------------------------------------------------------------------------------14------|


  Gtrs I, II
  H.                                                               S     S     S  S
|-----------------------------------------------------------------------------------|
|-----------------------------------------------------------------------------------|
|-----------------------------------------------------------------------------------|
|-----------------------------------------------------------------------------------|
|-----------------------------------------------------------------------------------|
|-6---------------------------------------------------------------------------------|
|-4----------------------------------------------------------------------6--------7-|
|
| Gtr IV
|               |--3--|                          |--3--|     |---3----|
| T  T T  T T   S  S  S  T  T  T  T  T  T  T  T  S  S  S  T  S   S    S  T  T  S  S
|------9-12-9-/12h16p12-------------------------12h16p12----16-/21---16\------------|
|----9------------------12-------------------14----------14-------------------------|
|-9------------------------14-------------13----------------------------------------|
|-----------------------------13-------14----------------------------------13-14-11-|
|--------------------------------15S16----------------------------------------------|
|-----------------------------------------------------------------------------------|
|-----------------------------------------------------------------------------------|


                          ~~~~
   H                      Q..    S
|-----------------------------------|
|-----------------------------------|
|-----------------------------------|
|-----------------------------------|
|-----------------------------------|
|--2--------------------------------|
|--0---------------------[3]----/4--|
|
|                         ~~~~
|  S  S  E      +E   +E   H
|-16-21-20b21==(20)r(20)-20---------|
|-----------------------------------|
|-----------------------------------|
|-----------------------------------|
|-----------------------------------|
|-----------------------------------|
|-----------------------------------|


  Gtrs I, II
  +S     S S S S S S S   S  S S S S S S S
|-----------------------------------------|
|-----------------------------------------|
|-----------------------------------------|
|-----------------------------------------|
|----------7-------5----------4-------8---|
|--------------5---------7--------8-------|
|-(4)----4---4---4---4------4---4---4---4-|
|
| Gtr IV
|                        >
|  H                    +H
|-20b21================(20)---------------|
|-----------------------------------------|
|-----------------------------------------|
|-----------------------------------------|
|-----------------------------------------|
|-----------------------------------------|
|-----------------------------------------|


   +S  S S S   S  S S S S S S S S S S S
|---------------------------------------|
|---------------------------------------|
|---------------------------------------|
|---------------------------------------|
|--------7----------5-------4-------8---|
|--------------5--------7-------8-------|
|--(4)-4---4------4---4---4---4---4---8-|
|
|  +Q         +Q        H
|-(20)r======(20)-----------------------|
|---------------------------------------|
|---------------------------------------|
|---------------------------------------|
|---------------------------------------|
|---------------------------------------|
|---------------------------------------|


  Gtrs I, II
  +S  S  S S S S S S  S S S S  S S  S S
|---------------------------------------|
|---------------------------------------|
|---------------------------------------|
|---------------------------------------|
|-------11-------9--------8--------12---|
|------------7-------11-------12--------|
|-(8)-8----8---8---8----8---8----8----7-|


  +S  S  S S S S S S  S S S S  S S  S S
|---------------------------------------|
|---------------------------------------|
|---------------------------------------|
|---------------------------------------|
|-------10-------8--------7--------11---|
|------------8-------10-------11--------|
|-(7)-7----7---7---7----7---7----7----4-|


  Gtr I
  +S  S S S S S S S S S S S S S S S   +S  S S S S S S S S S S S S S S S
|-----------------------------------|-----------------------------------|
|-----------------------------------|-----------------------------------|
|-----------------------------------|-----------------------------------|
|-----------------------------------|-----------------------------------|
|-------7-------5-------4-------8---|-------7-------5-------4-------8---|
|-----------5-------7-------8-------|-----------5-------7-------8-------|
|-(4)-4---4---4---4---4---4---4---4-|-(4)-4---4---4---4---4---4---4---8-|
|
| Gtr II
| +S  S S S S S S S S S S S S S S S   +S  S S S S S S S S S S S S S S S
|-----------------------------------|-----------------------------------|
|-----------------------------------|-----------------------------------|
|-----------------------------------|-----------------------------------|
|-----------------------------------|-----------------------------------|
|-------7-------5-------4-------8---|-------7-------5-------4-------8-8-|
|-----------5-------7-------8-------|-----------5-------7-------8-------|
|-(4)-4---4---4---4---4---4---4---4-|-(4)-4---4---4---4---4---4---4-----|


  Gtr I
  +S  S  S S S S  S S  S S S S  S S  S S
|----------------------------------------|
|----------------------------------------|
|----------------------------------------|
|----------------------------------------|
|-------11--------9--------8--------12---|
|------------7--------11-------12--------|
|-(8)-8----8---8----8----8---8----8----7-|
|
| Gtr II
| +S  S  S S S S  S S  S S S S  S S  S S
|----------------------------------------|
|--------8---------------------------9---|
|----------------10--------9-------------|
|------------8--------10-------11--------|
|-(8)-8----8---8----8----8---8----8----7-|
|----------------------------------------|
|----------------------------------------|


  +S  S  S S S S S S  S S S S  S S  S S
|---------------------------------------|
|---------------------------------------|
|---------------------------------------|
|---------------------------------------|
|-------10-------8--------7--------11---|
|------------8-------10-------11--------|
|-(7)-7----7---7---7----7---7----7----4-|
|
| +S  S  S S S S S S  S S S S  S S  S S
|---------------------------------------|
|--------7--------------------------8---|
|----------------9--------8-------------|
|------------7--------9-------10--------|
|-(7)-7----7---7---7----7---7----7----4-|
|---------------------------------------|
|---------------------------------------|


   6/8
    Gtrs I, II
    S S S S S S S S S S T T S   S S S S S S S S S S S S  3x
||----------------------------|--------------------------||
||----------------------------|--------------------------||
||o---------------------------|-------------------------o||
||----------------------------|--------------------------||
||o-7-----5-----4-------------|-7-----5---------7-----8-o||
||----5-----7-----------------|---5-----7-----7-----7----||
||------4-----4---4-4-4-4-4-4-|-----4-----4-0-----0------||


                             3/8
  Gtrs I, II
  S S S S S S S S S S T T S   S S S S S S
|---------------------------|-------------|
|---------------------------|-------------|
|---------------------------|-------------|
|---------------------------|-------------|
|-7-----5-----4-------------|-7-----5-----|
|---5-----7-----------------|---5-----7---|
|-----4-----4---4-4-4-4-4-4-|-----4-----4-|


   6/8
    Gtrs I, II
    S S S S S S S S  S S S  S   S S S S S S S S  S S S  S
||----------------------------|---------------------------|
||----------------------------|---------------------------|
||o---------------------------|---------------------------|
||----------------------------|---------------------------|
||o-----7-----8-----10-----11-|-----7-----8-----10-----11-|
||----7-----7-----7------7----|---7-----7-----7------7----|
||--0-----0-----0------0------|-0-----0-----0------0------|


  Gtr I
  S S S S S S S S S S S S   S S S S S S S S S S S S
|-------------------------|-------------------------|
|-------------------------|-------------------------|
|-------------------------|-------------------------|
|-------------------------|-------------------------|
|-----6-----7-----6-----4-|-----6-----7-----6-----4-|
|---6-----6-----6-----6---|---6-----6-----6-----6---|
|-4-----4-----4-----4-----|-4-----4-----4-----4-----|
|
| Gtr II
| S S S S S S S S S S S S   S S S S S S S S S S S S
|-------------------------|-------------------------|
|-------------------------|-------------------------|
|-------------------------|-------------------------|
|-----4-----6-----4-------|-----4-----6-----4-------|
|-----------------------7-|-----------------------7-|
|-------------------------|-------------------------|
|-4-4---4-4---4-4---4-4---|-4-4---4-4---4-4---4-4---|


  Gtrs I, II
  S S S S S S S S  S S S  S   S S S S S S S S  S S S  S
|---------------------------|---------------------------|
|---------------------------|---------------------------|
|---------------------------|---------------------------|
|---------------------------|------------------------11-|
|-----7-----8-----10-----11-|-----7-----8-----10--------|
|---7-----7-----7------7----|---7-----7-----7------7----|
|-0-----0-----0------0------|-0-----0-----0------0------|


                                                       1/8
  Gtr I
  S S S S S S S S S S S S   S S S S S S S S S S S S     S S
|-------------------------|--------------------------||-----|
|-------------------------|--------------------------||-----|
|-------------------------|-------------------------o||-----|
|-------------------------|--------------------------||-----|
|-----6-----7-----6-----4-|-----6-----7-----6-----4-o||-----|
|---6-----6-----6-----6---|---6-----6-----6-----6----||---6-|
|-4-----4-----4-----4-----|-4-----4-----4-----4------||-4---|
|
| Gtr II
| S S S S S S S S S S S S   S S S S S S S S S S S S     S S
|-------------------------|--------------------------||-----|
|-------------------------|--------------------------||-----|
|-------------------------|-------------------------o||-----|
|-----4-----6-----4-------|-----4-----6-----4--------||-----|
|-----------------------7-|-----------------------7-o||-----|
|-------------------------|--------------------------||---6-|
|-4-4---4-4---4-4---4-4---|-4-4---4-4---4-4---4-4----||-4---|


   4/4
    Gtrs I, II
    T T S S  S S  S S  S T T S S  S S  S S  S
||--------------------------------------------|
||--------------------------------------------|
||o-------------------------------------------|
||--------------------------------------------|
||o----------------------------------------10-|
||--7h8p7---10---11---10-7h8p7---10---11------|
||--------0----0----0----------0----0----0----|


  T T S S  S S  S S  S S  S S  S S S  S  S
|-------------------------------------------|
|-------------------------------------------|
|-------------------------------------------|
|-------------------------------------------|
|---------------------------8-10------------|
|-7h8p7---10---11---10-----------9------12--|
|-------0----0----0----8-10--------0-10-----|


 4/4
  Gtrs I, II
  T T S S  S S  S S  S T T S S  S S  S S  S
|-------------------------------------------|
|-------------------------------------------|
|-------------------------------------------|
|-------------------------------------------|
|----------------------------------------10-|
|-7h8p7---10---11---10-7h8p7---10---11------|
|-------0----0----0----------0----0----0----|


 1.
                                            2/4
  T T S S  S S  S S  S S  S S  S S S  S  S    S  S  S  S  S  S  S  S
|------------------------------------------|-----------------------------||
|------------------------------------------|-----------------------------||
|------------------------------------------|-------------14-15----------o||
|------------------------------------------|-------------------14-15-----||
|---------------------------8-10-----------|-------12-13----------------o||
|-7h8p7---10---11---10-----------9------12-|-----------------------------||
|-------0----0----0----8-10--------0-10----|-12-13-----------------------||


  2.
 4/4
  Gtr I
  T T S S  S S  S S  S T  T S  S S  S S  S S   Q  H.
|--------------------------------------------|----------*|
|--------------------------------------------|----------*|
|--------------------------------------------|----------*|
|----------------------8h12p8----------------|----------*|
|-----------------------------11-7-----------|----------*|
|-7h8p7---10---11---10-------------12-8------|-2--------*|
|-------0----0----0---------------------11-7-|-0--------*|
|
| Gtr II
| T T S S  S S  S S  S T  T S  S S  S S  S S   Q  H.
|--------------------------------------------|----------*|
|--------------------------------------------|----------*|
|----------------------7-11-7----------------|----------*|
|-----------------------------10-6-----------|----------*|
|----------------------------------11-7------|----------*|
|-7h8p7---10---11---10------------------10-6-|-2--------*|
|-------0----0----0--------------------------|-0--------*|


Duration Legend
---------------
W - whole; H - half; Q - quarter; E - 8th; S - 16th; T - 32nd; X - 64th; a - acciaccatura
+ - note tied to previous; . - note dotted; .. - note double dotted
Uncapitalized letters represent notes that are staccato (1/2 duration)
Irregular groupings are notated above the duration line
Duration letters will always appear directly above the note/fret number it represents the
duration for.  Duration letters with no fret number below them represent rests.  Multi-
bar rests are notated in the form Wxn, where n is the number of bars to rest for.  Low
melody durations appear below the staff

Tablature Legend
----------------
 h   - hammer-on
 p   - pull-off
 b   - bend
 pb  - pre-bend
 r   - bend release (if no number after the r, then release immediately)
 /\  - slide into or out of (from/to "nowhere")
 s   - legato slide
 S   - shift slide
  - natural harmonic
[n]  - artificial harmonic
n(n) - tapped harmonic
 ~   - vibrato
 tr  - trill
 T   - tap
 TP  - trem. picking
 PM  - palm muting
\n/  - tremolo bar dip; n = amount to dip
 \n  - tremolo bar down
 n/  - tremolo bar up
/n\  - tremolo bar inverted dip
 =   - hold bend; also acts as connecting device for hammers/pulls
 <>  - volume swell (louder/softer)
 x   - on rhythm slash represents muted slash
 o   - on rhythm slash represents single note slash

Misc Legend
-----------
 |  - bar
||  - double bar
||o - repeat start
o|| - repeat end
*|  - double bar (ending)
 :  - bar (freetime)
 $  - Segno
 &  - Coda
Tempo markers -  = BPM(8/16=s8/s16), where s8 = swing 8ths, s16 = swing 16ths
Добавлено: 12.06.2012
Другие материалы по этой песне:

Страница создана 12.06.2012
http://primanota.ru/capharnaum/ingrained-chords.htm
Привет, Гость.
Предлагаем пройти революционный курс по гитаре.
Подарок от PrimaNota.Ru, забирай!