PrimaNota.ru - самый крупный в мире бесплатный архив песенных текстов, аккордов, табулатур и нот


Capharnaum - Icon Of Malice - текст песни, таба, видео

Регистрация Запомнить меня
Войти через:  Facebook Google Twitter Vk Yandex Mail.ru

Capharnaum - Icon Of Malice - текст песни, таба, видео

Печатать
Просмотров: 138
Band: Capharnaum
Album: Fractured
Song: Icon of Malice

Copyright (c) Earache Records, 2005
Version 1.0, 18/12/2005


Suffixes for bend:
fb - full bend       hb - half bend
qb - quarter bend    t - tap bend
^ - Hold bend        r - release bend
~ - vibrato bend

Suffixes for harmonic:
ph - pinched harmonic      nh – natural harmonic
ah – artificial harmonic   hh – harp harmonic

Suffixes for mute:
. – palm mute            x – staccato mute
, - light palm mute      ; - heavy palm mute

Other:
/ - slide up to            \ - slide down to       
h - hammer on              p - pull off
‘ - sustained note         * - see comment
" - tremolo note           <> - Trill
L – left channel only      R – right channel only
= - 12 string guitar part 

Tuning A D A D G B E

Intro A (0:00)
|-------------------------------------------------------|
|-------------------------------------------------------|
|-------------------------------------------------------|
|-------------------------------------------------------|
|-6-----------------------------------------------------| gtr 1
|-------------------------------------------------------|
|-------------------------------------------------------|
  x
|-------------------------------------------------------|
|-------------------------------------------------------|
|-------------------------------------------------------|
|-------------------------------------------------------|
|-1-----0-2-5-6-6-----6-6---------0-2-4-7---7-7-6~------| gtr 2
|-1-2-1-------------------------4------------------8ph--|
|-----------------6-6-----6-7-6-----------9-------------|
    . . . . .     . .     . . . . . . .   .

Intro B (0:03)
|-----------------------------------------------------------|
|-----------------------------------------------------------|
|-----------------------------------------------------------|
|-----------------------------------------------------------|
|-------------4-4---------3-3-------------------------------| gtr 1
|-------------4-4---------3-3-------------------------------|
|-----------------------------------------------------------|
                x           x
|-----------------------------------------------------------|
|-----------------------------------------------------------|
|-----------------------------------------------------------|
|-------------4-4---------3-3-------------------------------|
|-------2-3-4-----------2-------------0-2-4-7---7-7-6~------| gtr 2
|-----------------4-5-4-------------4------------------8ph--|
|-5-6-5-----------------------6-7-6-----------9-------------|
  . . . . . .     . . . . . . . . . . . . .   .

Riff 1a (0:06)
|-------------------------------------------------------|
|-------------------------------------------------------|
|-----------7-8-8-----8-8-----------4-7-9---9-9-8-------|
|-------7-9---------------------4-7----------------8ph--|
|-6-7-6-----------6-6-----6-7-6-----------9-------------| gtr 1
|-------------------------------------------------------|
|-------------------------------------------------------|
    . . . . .     . .     . . . . . . .   .
|-------------------------------------------------------|
|-------------------------------------------------------|
|-------------------------------------------------------|
|-------------------------------------------------------|
|-------0-2-5-6-6-----6-6---------0-2-4-7---7-7-6~------| gtr 2
|-1-2-1-------------------------4------------------8ph--|
|-----------------6-6-----6-7-6-----------9-------------|
    . . . . .     . .     . . . . . . .   .


Riff 1b (0:10)
|-----------------------------------------------------------|
|-------------7-7---------6-6-------------------------------|
|-------4-5-6-----------4---------------4-7-9---9-9-8-------|
|-----------------4-5-4-------------4-7----------------8ph--|
|-5-6-5-----------------------6-7-6-----------9-------------| gtr 2
|-----------------------------------------------------------|
|-----------------------------------------------------------|
  . . . . . .     . . . . . . . . . . . . .   .
|-----------------------------------------------------------|
|-----------------------------------------------------------|
|-----------------------------------------------------------|
|-------------4-4---------3-3-------------------------------|
|-------2-3-4-----------2-------------0-2-4-7---7-7-6~------| gtr 2
|-----------------4-5-4-------------4------------------8ph--|
|-5-6-5-----------------------6-7-6-----------9-------------|
  . . . . . .     . . . . . . . . . . . . .   .

Riff 1c (0:13)
|-------------------------------------------------------|
|-------------------------------------------------------|
|-----------7-8-8-----9-9-----------4-7-9---9-9-8-------|
|-------7-9---------------------4-7----------------8ph--|
|-6-7-6-----------6-6-----6-7-6-----------9-------------| gtr 1
|-------------------------------------------------------|
|-------------------------------------------------------|
    . . . . .     . .     . . . . . . .   .
|-------------------------------------------------------|
|-------------------------------------------------------|
|-------------------------------------------------------|
|-------------------------------------------------------|
|-------0-2-5-6-6-----7-7---------0-2-4-7---7-7-6~------| gtr 2
|-1-2-1-------------------------4------------------8ph--|
|-----------------6-6-----6-7-6-----------9-------------|
    . . . . .     . .     . . . . . . .   .

Riff 1b x 1 (0:17)

Riff 2 (0:20) play 6 times
|-----------------------------------------------------------------|
|-------------------------------------------------------------4-3-|
|-------------------------------2-------------------------4-3-----|
|-------------------------2-3-----3-------------------4-3---------|
|-----------------1-1-1-1-----5-----5-5-5-5-5h6p5h6p5-------------|
|---------3-3-3-3-------------------------------------------------|
|-5-5-5-5---------------------------------------------------------|
  . . . . . . . . . . . .   . .   . . . . .

Riff 3a (0:43) play 4 times
|----------------------------------------------------|
|----------------------------------------------------|
|----------------------------------------------------|
|---------------------------------------------2------|
|-------------------------------------------1---1----| gtr 1
|-222-555-444-----444-333-222-5-5-444-----2-------2--|
|-------------555---------------------5-5------------|
  ... ... ... ... ... ... ... . . ... . . . . . . .

|----------------------------------------------------|
|---------------------------------------------5------|
|-------------------------------------------6---6----|
|-----------------------------------------7-------7--|
|---------------------------------------5------------| gtr 2
|-222-555-444-----444-333-222-5-5-444----------------|
|-------------555---------------------5--------------|
  ... ... ... ... ... ... ... . . ... . . . . . . .

Riff 3b (0:57)
|--------------------------------------------------|
|--------------------------------------------------|
|--------------------------------------------------|
|-------------5nh-----------------4ph---------3ph--|
|-----------------444---------333---------222------| gtr 1
|-222-555-444---------333-222---------333----------|
|--------------------------------------------------|
  ... ... ...     ... ... ... ...     ... ...

|--------------------------------------------------|
|--------------------------------------------------|
|--------------------------------------------------|
|-------------5nh-----------------4ph---------3ph--|
|-----------------444---------333---------222------| gtr 2
|-222-555-444---------333-222---------333----------|
|--------------------------------------------------|
  ... ... ...     ... ... ... ...     ... ...

Riff 3a x 1/2 (1:00)
Riff 3b x 2 (1:07)

Riff 4a (1:14)
|-------------------------------------------------------------------
|-------------------------------------------------------------------
|-------------------------------------------------------------------
|-------------------------------------------------------------------
|-7-7-------------7-7-------------7-7-------------7-7---------------
|-----10109-9-1010----10109-9-1010----10109-9-1010----10109-9-1010--
|-------------------------------------------------------------------
  . . . . . . . . . . . . . . . . . . . . . . . . . . . . . . . .

|-------------------------------------------------------------------
|-------------------------------------------------------------------
|-------------------------------------------------------------------
|-------------------------------------------------------------------
|-------------------------------------------------------------------
|-9-9-9-9-9-9-9-9-9-9-9-9-9-9-9-9-10101010101010101010101010101010--
|-------------------------------------------------------------------
  . . . . . . . . . . . . . . . . . . . . . . . . . . . . . . . .


-------------------------------------------------------------------|
-------------------------------------------------------------------|
-------------------------------------------------------------------|
-------------------------------------------------------------------|
-7-7-------------7-7-------------7-7-------------7-7---------------| gtr 1
-----10109-9-1010----10109-9-1010----10109-9-1010----10109-9-1010--|
-------------------------------------------------------------------|
 . . . . . . . . . . . . . . . . . . . . . . . . . . . . . . . .

-------------------------------------------------------------------|
-------------------------------------------------------------------|
-------------------------------------------------------------------|
-------------------------------------------------------------------|
-------------------------------------------------------------------| gtr 2
-7-7-7-7-7-7-7-7-7-7-7-7-7-7-7-7-7-7-7-7-7-7-7-7-7-7-7-7-7-7-7-7---|
-------------------------------------------------------------------|
 . . . . . . . . . . . . . . . . . . . . . . . . . . . . . . . .


Riff 4b (1:21)
|-------------------------------------------------------------------
|-------------------------------------------------------------------
|-------------------------------------------------------------------
|-------------------------------------------------------------------
|-7-7-------------7-7-------------7-7-------------7-7---------------
|-----10109-9-1010----10109-9-1010----10109-9-1010----10109-9-1010--
|-------------------------------------------------------------------
  . . . . . . . . . . . . . . . . . . . . . . . . . . . . . . . .

|-------------------------------------------------------------------
|-------------------------------------------------------------------
|-------------------------------------------------------------------
|-------------------------------------------------------------------
|-------------------------------------------------------------------
|-9-9-9-9-9-9-9-9-9-9-9-9-9-9-9-9-10101010101010101010101010101010--
|-------------------------------------------------------------------
  . . . . . . . . . . . . . . . . . . . . . . . . . . . . . . . .


-------------------------------------------------------------------|
-------------------------------------------------------------------|
-------------------------------------------------------------------|
-------------------------------------------------------------------|
-8-8-------------8-8-------------8-8-------------8-8---------------| gtr 1
-----111110101111----111110101111----111110101111----111110101111--|
-------------------------------------------------------------------|
 . . . . . . . . . . . . . . . . . . . . . . . . . . . . . . . .

-------------------------------------------------------------------|
-------------------------------------------------------------------|
-------------------------------------------------------------------|
-------------------------------------------------------------------|
-------------------------------------------------------------------| gtr 2
-8-8-8-8-8-8-8-8-8-8-8-8-8-8-8-8-8-8-8-8-8-8-8-8-8-8-8-8-8-8-8-8---|
-------------------------------------------------------------------|
 . . . . . . . . . . . . . . . . . . . . . . . . . . . . . . . .

Riff 4a x 1 (1:29)
Riff 4b x 1 (1:36)

Solo begins (1:44)

Riff 5a (1:44)
|--------------------------------------------------------|
|--------------------------------------------------------|
|--------------------------------------------------------|
|--------------------------------------------------------|
|--------------------------------------------------------|
|-4------5-------2--2--2------4------5------3------------|
|-2------3-------0--0--0------2------3------1------------|
                 x  x  x

Riff 5b (1:51)
|--------------------------------------------------------|
|--------------------------------------------------------|
|--------------------------------------------------------|
|--------------------------------------------------------|
|--------------------------------------------------------|
|-4------5-------2------------4------5------3------------|
|-2------3-------0------------2------3------1------------|

Riff 5a x 1 (1:58)
Riff 5b x 1 (2:06)

Riff 6a (2:13) play 4 times
|----------------------------------|
|----------------------------------|
|----------------------------------|
|----------------------------------|
|-1---0---4---3---6---5---7~---8---|
|-1---0---4---3---6---5---7~---8---|
|----------------------------------|
  .   .   .   .   .   .

Riff 6b (2:27) play 4 times
|----------------------------------|
|----------------------------------|
|----------------------------------|
|----------------------------------|
|----------------------------------|
|-3---2---6---5---8---7---9---10---|
|-1---0---4---3---6---5---7---8----|
  .   .   .   .   .   .

Riff 6c (2:41) play 4 times
|----------------------------------|
|----------------------------------|
|----------------------------------|
|----------------------------------|
|----------------------------------|
|-3---2---6---5---8---7---9---10---|
|-1---0---4---3---6---5---7---8----|
  .       .       .   

Fill 1a (2:55)
|------------------------------------------------|
|------------------------------------------------|
|------------------------------------------------|
|---------------------2"--3"-2"------------------|
|-2-3-2-0-3-2-0-3-3-2------------5"--2--3--5--3--| gtr 1
|-2-3-2-0-3-2-0-3-3-2----------------2--3--5--3--|
|------------------------------------------------|

|------------------------------------------------|
|------------------------------------------------|
|------------------------------------------------|
|------------------------------------------------|
|-2-3-2-0-3-2-0-3-3-2-----3------0---2--3--5--3--| gtr 2
|-2-3-2-0-3-2-0-3-3-2-----3------0---2--3--5--3--|
|------------------------------------------------|
                    x     x      x

Fill 1b (3:00)
|------------------------------|
|------------------------------|
|------------------------------|
|---2"--3"-2"------------------|
|--------------5"--2--3--5--3--| gtr 1
|------------------2--3--5--3--|
|------------------------------|

|------------------------------|
|------------------------------|
|------------------------------|
|------------------------------|
|-2-----3------0---2--3--5--3--| gtr 2
|-2-----3------0---2--3--5--3--|
|------------------------------|
  x     x      x

Riff 7 (3:05) play 4 times
|----------------------------------|
|----------------------------------|
|----------------------------------|
|---5"-----5"-----3"---------------|
|-2------2------0------2--3--5--3--| gtr 1
|-2------2------0------2--3--5--3--|
|----------------------------------|
  .      .      .      .  .  .  .
|----------------------------------|
|----------------------------------|
|----------------------------------|
|---2"-----2"----------------------|
|-2------2------0-5"---2--3--5--3--| gtr 2
|-2------2------0------2--3--5--3--|
|----------------------------------|
  .      .      .      .  .  .  .

Riff 8 (3:20) play 4 times
|----------------------------------------------------------------|
|----------------------------------------------------------------|
|----------------------------------------------------------------|
|-------------------------------------------------------2--------|
|-----3-----5-----3-----3-2-----------3-----5-----2-3-5---3-2----| gtr 1
|-0-3---0-3---0-3---0-3-----5-3-2-0-2---0-3---0-3-------------5--|
|----------------------------------------------------------------|
  . .   . .   . .   . .     . . . . .
|----------------------------------------------------------------|
|-------------------------------------------------------5--------|
|-----5-----7-----5-----5-4-----------5-----7-----4-5-7---5-4----|
|----------------------------------------------------------------|
|----------------------------------------------------------------| gtr 2
|-0-3---0-3---0-3---0-3-----5-3-2-0-2---0-3---0-3-------------5--|
|----------------------------------------------------------------|
  . .   . .   . .   . .     . . . . .   . .   . .

Fill 1b x 1 (3:35)
Riff 7 x 1/2 (3:43)
Intro A x 1 (3:51)
Intro B x 1 (3:54)
Riff 1a x 1 (3:57)
Riff 1b x 1 (4:01)
Riff 1c x 1 (4:04)
Riff 1b x 1 (4:07)
Riff 8 x 1/2 (4:10)

End (4:18)
|-----|
|-----|
|-----|
|-----|
|-2---|
|-2---|
|-----|

End.
Добавлено: 25.07.2012
Другие материалы по этой песне:
  • Аккорды и текст

Страница создана 10.03.2012
http://primanota.ru/capharnaum/icon-of-malice-chords.htm
Привет, Гость.
Предлагаем пройти революционный курс по гитаре.
Подарок от PrimaNota.Ru, забирай!