PrimaNota.ru - самый крупный в мире бесплатный архив песенных текстов, аккордов, табулатур и нот


Capharnaum - Fractured - текст песни, таба, видео

Регистрация Запомнить меня
Войти через:  Facebook Google Twitter Vk Yandex Mail.ru

Capharnaum - Fractured - текст песни, таба, видео

Печатать
Просмотров: 115
Уроки эстрадного вокала в Санкт-Петербурге
Band: Capharnaum
Album: Fractured
Song: Fractured


Code:
Suffixes for bend:
fb - full bend       hb - half bend
qb - quarter bend    t - tap bend
^ - Hold bend        r - release bend
~ - vibrato bend

Suffixes for harmonic:
ph - pinched harmonic      nh – natural harmonic
ah – artificial harmonic   hh – harp harmonic

Suffixes for mute:
. – palm mute            x – staccato mute
, - light palm mute      ; - heavy palm mute

Other:
/ - slide up to            \ - slide down to
h - hammer on              p - pull off
‘ - sustained note         * - see comment
" - tremolo note           <> - Trill
L – left channel only      R – right channel only
= - 12 string guitar part

Tuning A D A D G B E

Intro A (0:00)
|-----------------------------------------------------------------|
|-----------------------------------------------------------------|
|-----------------------------------------------------------------|
|-----------------------------------------------------------------|
|-------------------------------------------------------------7h8-|
|-3p2---2---------3p2---2---------3p2---2---------------0-7-8-----|
|-----5---5-3-2-3-----5---5-3-2-3-----5---5-3-2-3-0-7-8-----------|
      . . . . . .     . . . . . .     . . . . . . . . . . . .

Intro B (0:03)
|-------------------------------------------------------------------|
|-------------------------------------------------------------------|
|-------------------------------------------------------------------|
|-------------------------------------------------------------------|
|-------------------------------------------------------------7h8---|
|-3p2---2---------3p2---2---------3p2---2---------------0-7-8-------|
|-----5---5-3-2-3-----5---5-3-2-3-----5---5-3-2-3-0-7-8-----------0-|
      . . . . . .     . . . . . .     . . . . . . . . . . . .     .

---------------|-----------|------|
---------------|-drum fill-|------|
---------------|-----------|------|
-----------8h9-|-----------|------|
-----0-8-9-----|-----------|-12\--|
-8-9-----------|-----------|-12\--|
 . . . . .


Riff 1a (0:08)
|-----------------------------------------------------------------|
|-----------------------------------------------------------------|
|-----------------------------------------------------------------|
|-----------------------------------------------------------------|
|-------------------------------------------------------------7h8-|
|-3p2---2---------3p2---2---------3p2---2---------------0-7-8-----|
|-----5---5-3-2-3-----5---5-3-2-3-----5---5-3-2-3-0-7-8-----------|
      . . . . . .     . . . . . .     . . . . . . . . . . . .

Riff 1b (0:11)
|-------------------------------------------------------------------|
|-------------------------------------------------------------------|
|-------------------------------------------------------------------|
|-------------------------------------------------------------------|
|-------------------------------------------------------------7h8---|
|-3p2---2---------3p2---2---------3p2---2---------------0-7-8-------|
|-----5---5-3-2-3-----5---5-3-2-3-----5---5-3-2-3-0-7-8-----------0-|
      . . . . . .     . . . . . .     . . . . . . . . . . . .     .

---------------|
---------------|
---------------|
-----------8h9-|
-----0-8-9-----|
-8-9-----------|
 . . . . .

Riff 1a x 1 (0:15)
Riff 1b x 1 (0:18)

Riff 2a (0:22)
|------------------------------------------------|
|------------------------------------------------|
|------------------------------------------------|
|-9------9------9------10------------------------|
|-7------7------7------8-------------------------|
|-6--6-6-6--6-6-6--6-6-7-----3-3-3--3-3-3--3-3-3-|
|--------------------------0-1-1-1--1-1-1--1-1-1-|
     . .    . .    . .       . . .  . . .  . . .

Riff 2b (0:25)
|--------------------------------------------|
|--------------------------------------------|
|--------------------------------------------|
|-9------9------9----------------------------|
|-7------7------7----------------------------|
|-6--6-6-6--6-6-6--6-6-2--3-3-----------1ph~-|
|----------------------0--1-1-0-0-1-2-4------|
     . .    . .    . .    . . . . . . .

Riff 2a x 1 (0:28)
Riff 2b x 1 (0:31)
Riff 2a x 1 (0:34)
Riff 2b x 1 (0:37)
Riff 2a x 1 (0:39)
Riff 2b x 1 (0:42)

Riff 3a (0:45)
|-----------------------------------------------------------------|
|-----------------------------------------------------------------|
|-----------------------------------------------------------------|
|------------------------------------------------------11---------|
|-8-7---------7-8-7---------7-8-7-------------------11--------8-8-|
|-----11-8-11-------11-8-11-------11-8-11-8-7-7-8-8-------7-7-----|
|-----------------------------------------------------------------|
      .  . .        .  . .        .  . .  . . . . . .  .  . . . .

-------------------------------------------------------------------|
-------------------------------------------------------------------|
-------------------------------------------------------------------|
-10-10------------------------------------------------------11-----|
-------8-7---------7-8-7---------7-8-7-------------------11--------|
-----------11-8-11-------11-8-11-------11-8-11-8-7-7-8-8-------7-7-|
-------------------------------------------------------------------|
 .  .  .  . .        .  . .        .  . .  . . . . . .  .  . .

-----------|
-----------|
--------13-|
-----13----|
-8-8-------|
-----------|
 . . .  .


Riff 3b (1:03)
|-----------------------------------------------------------------|
|-----------------------------------------------------------------|
|-----------------------------------------------------------------|
|------------------------------------------------------11---------|
|-8-7---------7-8-7---------7-8-7-------------------11--------8-8-|
|-----11-8-11-------11-8-11-------11-8-11-8-7-7-8-8-------7-7-----|
|-----------------------------------------------------------------|
      .  . .        .  . .        .  . .  . . . . . .  .  . . . .

------------------------------------------------------------------|
------------------------------------------------------------------|
------------------------------------------------------------------|
-10-10-----------------------------------------------10---11---13-|
-------8-7---------7-8-7---------7-8-7-------------8----8----8----|
-----------11-8-11-------11-8-11-------11-8-11-8-7----------------|
------------------------------------------------------------------|
 .  .  .  . .        .  . .        .  . .  . . .

Riff 4a (1:08)
|--------------------------------------------|
|--------------------------------------------|
|--------------------------------------------|
|-------------------------------10---11---10-|
|-----------------------------8----8----8----|
|-3-----3-3-3--3-3-3--3-3-3-7----------------|
|-1---1-1-1-1--1-1-1--1-1-1------------------|
      . . . .  . . .  . . . . . .  . .  . .

Riff 4b (1:11)
|--------------------------------------------|
|--------------------------------------------|
|--------------------------------------------|
|-------------------------------10---11---13-|
|-----------------------------8----8----8----|
|-3-----3-3-3----------1ph~-7----------------|
|-1---1-1-1-1--0-1-2-4-----------------------|
      . . . .  . . . .

Riff 4a x 1 (1:14)
Riff 4b x 1 (1:17)
Riff 4a x 1 (1:20)
Riff 4b x 1 (1:23)
Riff 4a x 1 (1:26)

Riff 4c (1:29)
|----------------------------|
|----------------------------|
|----------------------------|
|----------------------------|
|----------------------------|
|-3-----3-3-3----------1ph~--|
|-1---1-1-1-1--0-1-2-4-------|
      . . . .  . . . .

Riff 5a (1:31)
|-------------------------------------------------|
|-------------------------------------------------|
|-------------------------------------------------|
|-------------------------------------------------|
|-------------------------------------------------|
|-3-2-------2-3-2-------2-3-2---------------------|
|-----5-3-5-------5-3-5-------5-3-5-3-1-1-1-1-1-1-|
      . . .       . . .       . . . . . . . . . .

Riff 5b (1:33)
|--------------------------------------------|
|--------------------------------------------|
|--------------------------------------------|
|--------------------------------------------|
|-----------------------------------------1--|
|-3-2-------2-3-2-------2-3-2-------------1--|
|-----5-3-5-------5-3-5-------5-3-5-3-0-1----|
      . . .       . . .       . . . . . .

Riff 5a x 1 (1:35)
Riff 5b x 1 (1:38)
Riff 5a x 1 (1:40)
Riff 5b x 1 (1:42)
Riff 5a x 1 (1:44)
Riff 5b x 1 (1:47)

Riff 6a (1:49)
|-------------------------------------------------------------|
|-------------------------------------------------------------|
|-9------10------12------13------15------13------12------13---|
|-------------------------------------------------------------|
|-7------8-------10------11------13------11------10------11---| gtr 1
|-------------------------------------------------------------|
|-------------------------------------------------------------|

|-------------------------------------------------------------|
|-------------------------------------------------------------|
|-9-\6---------------------8--9--5---------------10-----------|
|-------------------------------------------------------------|
|-7-\4---------------------6--7--3---------------8------------| gtr 2
|-------------------------------------------------------------|
|-------------------------------------------------------------|

Riff 6b (1:53)
|-------------------------------------------------------------|
|-------------------------------------------------------------|
|-9------10------12------13------15------13------5------9-----|
|-------------------------------------------------------------|
|-7------8-------10------11------13------11------3------7-----| gtr 1
|-------------------------------------------------------------|
|-------------------------------------------------------------|

|-------------------------------------------------------------|
|-------------------------------------------------------------|
|-9-\6---------------------8--9--5---------------10-----------|
|-------------------------------------------------------------|
|-7-\4---------------------6--7--3---------------8------------| gtr 2
|-------------------------------------------------------------|
|-------------------------------------------------------------|

Riff 7a (1:58)
|-------------------------------------------------------------|
|-------------------------------------------------------------|
|-------------------------------------------------------------|
|-------------------------------------------------------------|
|----------------12p7--------------------------12p7-----------|
|-12p7------12p7------12p7------12p7------12p7------12p7------|
|------12p7----------------12p7------12p7----------------12p7-|

Riff 7b (2:00)
|-------------------------------------------------------------|
|-------------------------------------------------------------|
|-------------------------------------------------------------|
|-------------------------------------------------------------|
|----------------13p8--------------------------13p8-----------|
|-13p8------13p8------13p8------13p8------13p8------13p8------|
|------13p8----------------13p8------13p8----------------13p8-|

Riff 7a x 1 (2:02)

Riff 7c (2:04)
|-------------------------------------------------------------|
|-------------------------------------------------------------|
|-------------------------------------------------------------|
|----------------------------------------------------8-9-13---|
|----------------13p8-------------------------8-9-13----------|
|-13p8------13p8------13p8-------------8-9-13-----------------|
|------13p8----------------13p8-8-9-13------------------------|

Riff 6a x 1 (2:07)
Riff 6b x 1 (2:11)
Riff 7a x 1 (2:16)
Riff 7b x 1 (2:18)
Riff 7a x 1 (2:20)
Riff 7b x 1 (2:23)

Riff 8a (2:25) play twice
|-----------------------------------------|
|-----------------------------------------|
|-----------------------------------------|
|-----------------------------------------|
|-12-8------12-8------12-8------12-8------|
|------12-8------12-8------12-8------12-8-|
|-----------------------------------------|

Riff 8b (2:28)
|-----------------------------------------|
|-----------------------------------------|
|-----------------------------------------|
|-----------------------------------------|
|-10-7------10-7------10-7------10-7------|
|------10-7------10-7------10-7------10-7-|
|-----------------------------------------|

Riff 8c (2:29)
|-----------------------------------------|
|-----------------------------------------|
|-----------------------------------------|
|-----------------------------------------|
|-13-7------13-7------13-7------13-7------|
|------13-7------13-7------13-7------13-7-|
|-----------------------------------------|

Riff 8a x 1 (2:31)
Riff 8b x 1 (2:34)
Riff 8c x 1 (2:35)
Riff 7a x 1 (2:37)
Riff 7b x 1 (2:39)
Riff 7a x 1 (2:41)

Riff 7d (2:43)
|-------------------------------------------------|
|-------------------------------------------------|
|-------------------------------------------------|
|-------------------------------------------------|
|-13-8-----------7-12-11-6--------10-5------------|
|------13-8-7-12-----------11-6--------10-5---5\--|
|---------------------------------------------4\--|
                                x           x

Riff 2a x 1 (2:46)
Riff 2b x 1 (2:49)
Riff 2a x 1 (2:52)
Riff 2b x 1 (2:55)

Solo begins at (2:58)

Riff 9a (2:58)
|-----------------------------------------|
|-----------------------------------------|
|-----------------------------------------|
|--------------------------------------7--|
|--------------------------------------7--|
|-2--2---2-2-2-2---2-2-2-2--2-2-2-8-2--7--|
|-0--0---0-0-0-0---0-0-0-0--0-0-0-6-0-----|

Riff 9b (3:01)
|--------------------------------------------|
|--------------------------------------------|
|--------------------------------------------|
|--------------------------------------------|
|--------------------------------------------|
|-2--2---2-2-2-2---2-2-2-2--2-2---------1ph~-|
|-0--0---0-0-0-0---0-0-0-0--0-0-0-1-2-4------|

Riff 9a x 1 (3:04)
Riff 9b x 1 (3:07)
Riff 9a x 1 (3:10)
Riff 9b x 1 (3:13)
Riff 9a x 1 (3:16)
Riff 9b x 1 (3:19)

Solo ends at (3:22)

Riff 2a x 1 (3:22)
Riff 2b x 1 (3:25)
Riff 2a x 1 (3:28)
Riff 2b x 1 (3:31)
Riff 7a x 1 (3:34)
Riff 7b x 1 (3:36)
Riff 7a x 1 (3:38)
Riff 7c x 1 (3:41)
Riff 7a x 1 (3:43)
Riff 7b x 1 (3:45)
Riff 7a x 1 (3:48)
Riff 7d x 1 (3:50)
End (3:52)
Добавлено: 10.07.2013
Другие материалы по этой песне:

Страница создана 27.03.2012
http://primanota.ru/capharnaum/fractured-chords.htm
Привет, Гость.
Предлагаем пройти революционный курс по гитаре.
Подарок от PrimaNota.Ru, забирай!