PrimaNota.ru - самый крупный в мире бесплатный архив песенных текстов, аккордов, табулатур и нот


Capguns N Coke - Please Dont Go - таба, видео

Регистрация Запомнить меня
Войти через:  Facebook Google Twitter Vk Yandex Mail.ru

Capguns N Coke - Please Dont Go - таба, видео

Печатать
Просмотров: 81
-------------------------------------------------------------------------------
                             Please Don't Go - Capguns n' Coke
-------------------------------------------------------------------------------
Tabbed by: squintyjoefan
E-mail: squintyjoefan@hotmail.co.uk

Track 2 from "Capgun's n' Coke vs The Grizzley Ends"

Details can be found at:

www.myspace.com/capgunsandcoke
www.squintyjoerecords.co.uk/


Tuning: EADGBe (standard)

Intro
Verse
Pre-Chorus
Chorus (without bass riff)
Verse 
Pre-Chorus
Chorus (without bass riff)
Bass Bridge 
Guitar Riff Bridge
Chorus (without bass riff)
Chorus (end with bass riff)
End on E5

Intro/Chorus (Chorus uses same chords)

e|---------------------------------------------------------------------------|
B|---------------------------------------------------------------------------|
G|-9---------11---------------------------------9----------------------------|
D|-9----9----11----7--------------4------7------9----------------------------|
A|-7----9----9-----7--------------4------7------7(x16)-----------------------|
E|------7----------5--------------2(x8)--5(x8)-------------------------------|
   E5   B5  F#5    D5             F#5    A5     E5
  Play each chord 8 times
  Play these 4 bars twice  then  end on these chords

Bass (played over the Intro)

e|---------------------------------------------------------------------------|
B|---------------------------------------------------------------------------|
G|---------------------------------------------------------------------------|
D|------97679--------97679----------97679---------97777----------------------|
A|-7777-----------------------9999-------------------------------------------|
E|--------------7777-------------------------5555----------------------------|
    E5           B5            F#5           D5  (guitar chords for rough timing)


Verse

e|---------------------------------------------------------------------------|
B|---------------------------------------------------------------------------|
G|---------------------------------------------------------------------------|
D|--2------4-------7--------2------4------7------9---------------------------|
A|--2------4-------7--------2------4------7------9---------------------------|
E|--0(x8)--2(x8)---5(x16)---0(x8)--2(x8)--5(x8)--7(x8)-----------------------|
    E5     F#5     A5       E5     F#5    A5     B5
Palm mute.................


Pre-Chorus

e|---------------------------------------------------------------------------|
B|---------------------------------------------------------------------------|
G|---------------------------------------------------------------------------|
D|--7------9-----------------------------------------------------------------|
A|--7------9-----------------------------------------------------------------|
E|--5(x8)--7(x8)-------------------------------------------------------------|
    A5     B5    Play this 3 times in total

Bass Bridge
  
e|---------------------------------------------------------------------------|
B|---------------------------------------------------------------------------|
G|---------------------------------------------------------------------------|
D|---------------------------------------------------------------------------|
A|-777777----------999999----------------------------------------------------|
E|---------777777---------555555---------------------------------------------|

Guitar Riff (at the end of the bridge)

e|---------------------------------------------------------------------------|
B|---------------------------------------------------------------------------|
G|---------------------------------------------------------------------------|
D|--4----6----7--------------------------------------------------------------|
A|--4----6----7--------------------------------------------------------------|
E|--2----4----5--------------------------------------------------------------|
   F#5  G#5   A5



************************************

| /   slide up
| \   slide down
| h   hammer-on
| p   pull-off
| ~   vibrato
| +   harmonic
| x   Mute note
| b   Bend
| pb  Pre-bend
| br  Bend release
| pbr Pre-bend release
| brb Bend release bend

************************************
Добавлено: 13.11.2013
Вам также может быть интересно:
Другие материалы по этой песне:
  • Аккорды и текст

Страница создана 13.11.2013
http://primanota.ru/capguns-n-coke/please-dont-go-chords.htm
Привет, Гость.
Предлагаем пройти революционный курс по гитаре.
Подарок от PrimaNota.Ru, забирай!