PrimaNota.ru - самый крупный в мире бесплатный архив песенных текстов, аккордов, табулатур и нот


Capguns N Coke - Leather Jacket - таба

Регистрация Запомнить меня
Войти через:  Facebook Google Twitter Vk Yandex Mail.ru

Capguns N Coke - Leather Jacket - таба

Печатать
Просмотров: 110
Уроки эстрадного вокала в Санкт-Петербурге
-------------------------------------------------------------------------------
                             Leather Jacket - Capguns n' Coke
-------------------------------------------------------------------------------
Tabbed by: squintyjoefan
E-mail: squintyjoefan@hotmail.co.uk

Track 1 from "Capguns 'n Coke vs The Grizzley Ends"

Details can be found at:

www.myspace.com/capgunsandcoke
www.squintyjoerecords.co.uk/

Tuning: Standard (EADGBe)

Song order

Intro
Verse
Chorus
Intro
Verse
Chorus
Intro
End on D5


Intro

e|---------------------------------------------------------------------------|
B|---------------------------------------------------------------------------|
G|--7--------5--------------------------------5~-----------------------------|
D|--7--------5---------5--------------7~------5~-----------------------------|
A|--5(x8)----3(x4)-----5--------------7~------3~-----------------------------|
E|---------------------3(x4)----------5~-------------------------------------|
    D5      C5         G5             A5      C5
     Play this bar 3 times            Intro End (play each chord once and hold)


Intro Lead

e|---------------------------------------------------------------------------|
B|---------------------------------------------------------------------------|
G|--7-9-11-9--11-12-11-9-7---7-9-11-9---11-12-14-12-11-----------------------|
D|---------------------------------------------------------------------------|
A|---------------------------------------------------------------------------|
E|---------------------------------------------------------------------------|

e|---------------------------------------------------------------------------|
B|---------------------------------------------------------------------------|
G|--7-9-11-9--11-12-11-9-7---2--5--7-9---------------------------------------|
D|---------------------------------------------------------------------------|
A|---------------------------------------------------------------------------|
E|---------------------------------------------------------------------------|

Verse

e|---------------------------------------------------------------------------|
B|---------------------------------------------------------------------------|
G|--7~------------------7----------------------------------------------------|
D|--7~---5-------7------7-----5-----7------5------7--------------------------|
A|--5~---5-------7------5(x8)-5-----7------5------7--------------------------|
E|-------3(x4)---5(x4)--------3(x4)-5(x4)--3(x8)--5(x8)----------------------|
    D5   G5      A5     D5    G5    A5     G5     A5


Chorus

e|---------------------------------------------------------------------------|
B|---------------------------------------------------------------------------|
G|--7-----------7------------7-----------------------------------------------|
D|--7-----5-----7-----5------7-----5------7----------------------------------|
A|--5(x3)-5-----5(x3)-5------5(x3)-5------7----------------------------------|
E|--------3(x8)-------3(x8)--------3(x8)--5(x16)-----------------------------|
    D5    G5    D5    G5     D5    G5     A5
    



************************************

| /   slide up
| \   slide down
| h   hammer-on
| p   pull-off
| ~   vibrato
| +   harmonic
| x   Mute note
| b   Bend
| pb  Pre-bend
| br  Bend release
| pbr Pre-bend release
| brb Bend release bend

************************************
Добавлено: 18.07.2013
Вам также может быть интересно:
Другие материалы по этой песне:
  • Аккорды и текст

Страница создана 18.07.2013
http://primanota.ru/capguns-n-coke/leather-jacket-chords.htm
Привет, Гость.
Предлагаем пройти революционный курс по гитаре.
Подарок от PrimaNota.Ru, забирай!