PrimaNota.ru - самый крупный в мире бесплатный архив песенных текстов, аккордов, табулатур и нот


Capdown - Dub No 2 - аккорды и текст, бас-таба, видео

Регистрация Запомнить меня
Войти через:  Facebook Google Twitter Vk Yandex Mail.ru

Capdown - Dub No 2 - аккорды и текст, бас-таба, видео

Печатать
Просмотров: 195
Dub No 2
Capdown
Riff 1:

G-------------------|
D-------------------|
A-------------------|
E--6--7--2--/7--9-4-|
x 5

Riff 1 end:

G-----------------------|
D-----------------------|
A-----------------------|
E--6--7--2--7-6-4-6-4-3-|

G------------------|
D------------------|
A-----------2-4----|
E--2--1--2------3--|
x 4

Riff 2 end:

G--------------|---------|
D--------------|---------|
A--------------|---------|
E--4--4--4--4--|--4------|

Riff 1 x 3
Riff 1 end

Riff 3:

G--------------|
D--------------|
A--------------|
E--6----4-2-4--|
x 3

Riff 3 end:

G--------------|
D--------------|
A--------------|
E--6----4-2-1--|

G------------------|
D------------------|
A------------------|
E--6-7-8-9-6-7-8-9-|
x 4

G------------|
D------------|
A------------|
E--11--5--4--|

G------------------|
D------------------|
A-----------2-2----|
E--2--1--2------3--|
x 8

Riff 2 end

Riff 3 x 3
Riff 3 end

Riff 1 x 3
Riff 1 end
Добавлено: 08.08.2013
Другие материалы по этой песне:
  • Аккорды и текст

Страница создана 27.05.2012
http://primanota.ru/capdown/dub-no-2-chords.htm
Привет, Гость.
Предлагаем пройти революционный курс по гитаре.
Подарок от PrimaNota.Ru, забирай!