PrimaNota.ru - самый крупный в мире бесплатный архив песенных текстов, аккордов, табулатур и нот


Capdown - An A-political Stand Of Reason - бас-таба, видео

Регистрация Запомнить меня
Войти через:  Facebook Google Twitter Vk Yandex Mail.ru

Capdown - An A-political Stand Of Reason - бас-таба, видео

Печатать
Просмотров: 121
Band: Capdown
Song: An A-political stand of reason

. = stop note from ringing
x = mute

Intro: 
G|----------------------------------|-------------------------------|
D|----------------------------------|-------------------------------|
A|----------------------------------|---------4.--2.--3.------------|
E|-1.-------------------------------|-1.----------------------4.----|

Pre-verse
G|------------------|-----------------|-------------------|------------------|
D|------------------|-----------------|-3-3-3-3-----------|------------------|
A|---------222------|---------444-222-|---------202-------|-----------4-3-2--|
E|-1-1-1-1-----444--|-1-1-1-1---------|-------------434---|-1-1-1-1-1--------| 

G|------------------|------------------|------------------|------------------|
D|------------------|------------------|-3-3-3-3----------|------------------|
A|---------202------|---------444-222--|---------202------|-----4---3---2----|
E|-1-x1-x1-----434--|-1-1-1-1----------|-------------434--|-1----------------| 

Verse
G|------------------|------------------|
D|------------------|--5-------6-------|
A|---------444-222--|-3-3.-x3----------| x4
E|-1-x1-x1----------|---------4-4-1-/4-| 

Pre-verse 2
G|------------------|-----------------|-------------------|------------------|
D|------------------|-----------------|-3-3-3-3-----------|------------------|
A|---------202------|---------444-222-|---------202-------|-----------4-3-2--|
E|-1-1-1-1-----434--|-1-1-1-1---------|-------------434---|-1-1-1-1-1--------| 

Verse x4
Fill
G|------------------|------------------|------------------|------------------|
D|------------------|------------------|------------------|------------------|
A|---------202------|------------------|------------------|------------------|
E|-1-1-1-1-----434--|-1~---------------|------------------|---------11-011-0-|

Bass-solo
G|------------------|------------------|------------------|------------------|
D|-33-3-------------|-33-3-------------|-33-3-------------|-33-3-------------|
A|-----22-233-3-----|-----22-233-3-----|-----22-23~-------|-----22-2---------|
E|-------------44-4-|-------------1.1.1|------------------|---------1.--011--| 

Chorus x2
G|------------------|------------------|------------------|------------------|
D|-33-3-------------|------------------|-33-3-------------|------------------|
A|-----22-233-3-----|-----44-4---------|-----22-233-3-----|-----44-4----33-3-|
E|-------------44-4-|-11-1----44-433-3-|-------------44-4-|-11-1----44-4-----| 

G|------------------|------------------|------------------|------------------|
D|-33-3-------------|------------------|-33-3-------------|------------------|
A|-----22-233-3-----|------------------|-----22-233-3-----|---------2~-------|
E|-------------1~---|-4444444433333333-|-------------1~---|-4~---------------| 

Bridge: Listen really carefull
G|---555-55--555-55-|------------------|------------------|------------------|
D|-3-------3--------|------------------|------------------|------------------|
A|------------------|-4-4/9\--2.--2.---|-3-3/10\-3-3/10\--|------------------|
E|------------------|------------------|------------------|-4-------6---4----| 

Bass-solo
Chorus 1x
Bridge 2
G|------------------|------------------|------------------|------------------|
D|------------------|------------------|------------------|------------------|
A|-----2---3--------|------------------|-----2---3--------|-4~------2~-------|
E|-1-----------1----|-4~------3~-------|-1-----------1----|------------------| 

Bridge
Outro
G|------------------|  |------------------|
D|------------------|  |------------------|
A|---------2--------|  |------------------|
E|-1~----------4----|x4|-1----------------| 

Добавлено: 24.05.2012
Другие материалы по этой песне:

Страница создана 11.03.2012
http://primanota.ru/capdown/an-a-political-stand-of-reason-chords.htm
Привет, Гость.
Предлагаем пройти революционный курс по гитаре.
Подарок от PrimaNota.Ru, забирай!