PrimaNota.ru - самый крупный в мире бесплатный архив песенных текстов, аккордов, табулатур и нот


Cannibal Corpse - Spine Splitter - текст песни, таба, бас-таба, видео

Регистрация Запомнить меня
Войти через:  Facebook Google Twitter Vk Yandex Mail.ru

Cannibal Corpse - Spine Splitter - текст песни, таба, бас-таба, видео

Печатать
Просмотров: 233
Авторы музыки: Jack Owen
Авторы текста: Paul Mazurkiewicz
Cannibal Corpse - Bloodthirst - Spine Splitter (1999)

[Notes: This song's root is B-flat, so you can
either get yourself a 7-string and tune it a half-step
down, or tune your 6-string to B-flat - I use EB Steel
Slinkys, 11-56. Only low six are shown here.]

Fig. 1
|-------------------|
|-------------------|
|-------------------|
|-------------------|
|-------------------|
|--2-0-3-0-6-0-5-0--|


Fig. 2
|-------------------------------------------------------------------|
|-------------------------------------------------------------------|
|-------------------------------------------------------------------|
|-------------------------------------------------------------------|
|------------------2-------------------------------1----------------|
|--4-0-1-0-2-0-1-0---0-1-0-2-0-1-0-4-0-1-0-2-0-1-0---0-1-0-2-0-1-0--|


Fig. 3
|----------------------------------------------------|
|----------------------------------------------------|
|----------------------------------------------------|
|----------------------------------------------------|
|--------------------------------------------222111--|
|--222111444222222111222111222111444222222111--------|

[alt gtr. 2, 2nd verse]
|----------------------------------------------------|
|----------------------------------------------------|
|----------------------------------------------------|
|--------------------------------------------12~11~--|
|--12~11~14~12~12~11~12~11~12~11~14~12~12~11~--------|
|----------------------------------------------------|


Fig. 4
[preface with fig. 1]

|---------------------------|--------|---------------------------|
|---------------------------|--------|---------------------------|
|---------------------------|--------|---------------------------|
|---------------------------|-repeat-|---------------------------|
|---------------------------|---2x---|--------------3h4p3-4p1p0--|
|--5-0-3-0-2-0-6-0-5-0-3-0--|--------|--0h1h2-0h1h4--------------|


|-------------------------------------------------------------------|
|-------------------------------------------------------------------|
|-------------------------------------------------------------------|
|-------------------------------------------------------------------|
|-------------------------------------------------------------------|
|--6-0-5-0-0-0-0-0-3-0-2-0-4-4-4-4-6-0-5-0-0-0-0-0-3-0-2-0-4-4-4-4--|


Fig. 5
|-----------------------------------|
|-----------------------------------|
|-----------------------------------|
|-----------------------------------|
|-----------------------------------|
|--6-0-5-0-0-0-0-0-3-0-2-0-6-0-5-0--|


Fig. 6
[all 12's are tapped]
a.
|---------------------------------------------------------------------------|
|---------------------------------------------------------------------------|
|---------------------------------------------------------------------------|
|--------------------------------------12p0h1h2-12p0h2h3--------------------|
|--------------------12p0h1h2-12p0h2h3-------------------12p0h1h2-12p0h2h3--|
|--12p0h1h2-12p0h2h3--------------------------------------------------------|

b.
|---------------------------------------------------------------------------|
|---------------------------------------------------------------------------|
|---------------------------------------------------------------------------|
|--------------------------------------12p9p6p0-12p6p3p0--------------------|
|--------------------12p0h3h6-12p0h6h9-------------------12p9p6p0-12p6p3p0--|
|--12p0h3h6-12p0h6h9--------------------------------------------------------|

Fig. 7
[solo: gtr. 1 is same as fig. 2, gtr. 2 plays fig. 2 up three frets, like so:]
|-------------------------------------------------------------------|
|-------------------------------------------------------------------|
|-------------------------------------------------------------------|
|-------------------------------------------------------------------|
|------------------5-------------------------------4----------------|
|--7-0-4-0-5-0-4-0---0-4-0-5-0-4-0-7-0-4-0-5-0-4-0---0-4-0-5-0-4-0--|


Fig. 8
|-------------------------------------------------------------|
|-------------------------------------------------------------|
|-------------------------------------------------------------|
|-------------------------------------------------------------|
|-------------------------------------------------------------|
|--111111111111-2-0-3-0-6-0-5-0-222222222222-2-0-3-0-6-0-5-0--|

|-------------------------------------------------------------|
|-------------------------------------------------------------|
|-------------------------------------------------------------|
|-------------------------------------------------------------|
|-------------------------------------------------------------|
|--666666666666-2-0-3-0-6-0-5-0-555555555555-2-0-3-0-6-0-5-0--|

|-----------------------------------|
|-----------------------------------|
|-----------------------------------|
|-----------------------------------|
|--2---2---2---2--------------------|
|--0---0---0---0---2-0-3-0-6-0-5-0--|
Добавлено: 23.06.2012
Другие материалы по этой песне:

Страница создана 28.03.2012
http://primanota.ru/cannibal-corpse/spine-splitter-chords.htm
Привет, Гость.
Предлагаем пройти революционный курс по гитаре.
Подарок от PrimaNota.Ru, забирай!