PrimaNota.ru - самый крупный в мире бесплатный архив песенных текстов, аккордов, табулатур и нот


Cannibal Corpse - Frantic Disembowlement - таба, видео

Регистрация Запомнить меня
Войти через:  Facebook Google Twitter Vk Yandex Mail.ru

Cannibal Corpse - Frantic Disembowlement - таба, видео

Печатать
Просмотров: 173
Frantic Disembowelment by CC!



.  - palm mute           /  - slide up to
  - slide down to       ~  - vibrato
h  - hammer on           b  - Bend
p  - pull off            Suffixes for bend
t  - tap                 f  - full bend    h - half bend
ph - pinched harmonic    q  - quarter bend t - tap bend
*  - see comment         ^  - Hold bend    r release bend
x  - Stuccatto           ~  - vibrato bend
,  - slight palm mute    () - ghost note, sustained note
"  - tremolo note        <> - Trill


Tunning: Bb.


Riff1
Intro                                    Riff3 (Before Riff's 1 and 2)
|---------------------------------------|-----------------------------------|
|---------------------------------------|-----------------------------------|
|------------------556------------------|-----------------------------------|
|----------------4-----5----------------|-----------------------------------|
|---------------------------------------|---------------7788----------------|
|--3h6p3--2h5p2-----------3h6p3--2h5p2--|--6h9p6--5h8p5------6h9p6-5h8p5----|


Riff2
|------------------------------------------------------------------------------|
|------------------------------------------------------------------------------|
|------------------------------------010----------01---------------------------|
|----8--------858-------58---5-------------------------------------------------|
|--------7-8--------8-7----------4-5---------5-4-------------------------------|
|------6----------6------------3----------3------------------------------------|


Riff4
|------------------------------------------------------------------------------|
|------------------------------------------------------------------------------|
|---------------3-4------------------------------------------------------------|
|-----5--4-------------5-6----------------5--4---------------------------------|
|-----3--2---5------3---------------------3--2---------------------------------|
|--------------------------3h4p3-6h7p6-----------------------------------------|


Riff5
|------------------------------------------------------------------------------|
|------------------------------------------------------------------------------|
|------------------------------------------------------------------------------|
|--------------------5/7/9---------7/6-------------8/9/10----------------------|
|---2--2--2--2---4---3/5/7-7---8---5/4--7/8/7--8---6/7/8--10/9-----------------|
|---0--0--0--0---2p0-------5p0-6p0------5/6/5--6p0---------8/7-----------------|


Riff6
|------------------------------------------------------------------------------|
|------------------------------------------------------------------------------|
|------------------------------------------------------------------------------|
|--------------------------------------------6h9p6-7h10p7----------2h5p2-3h6p3-|
|-8-----8/10-----10/11---------------------------------------------------------|
|---7-6------9-8-------10-9---8h11p8-7h10p7-----------------3h6p3--------------|


Riff7
|---0----------------------------------------|
|----1---------------------------------------|
|-----5--------------------------------------|
|------5-------------------------2-2-2-2-----|
|-------6--3h6p3h6p3-------------0-0-0-0-----|
|---------------------2h5p2h5p2--------------|

Добавлено: 20.05.2012
Другие материалы по этой песне:

Страница создана 12.05.2012
http://primanota.ru/cannibal-corpse/frantic-disembowlement-chords.htm
Привет, Гость.
Предлагаем пройти революционный курс по гитаре.
Подарок от PrimaNota.Ru, забирай!