PrimaNota.ru - самый крупный в мире бесплатный архив песенных текстов, аккордов, табулатур и нот


Cannibal Corpse - A Cauldron Of Hate - текст песни, таба, бас-таба, видео

Регистрация Запомнить меня
Войти через:  Facebook Google Twitter Vk Yandex Mail.ru

Cannibal Corpse - A Cauldron Of Hate - текст песни, таба, бас-таба, видео

Печатать
Просмотров: 307
Авторы музыки: Alex Webster
Авторы текста: Alex Webster
    Cannibal Corpse
"A Cauldron of Hate" solo        Tabbed by Tom Marshall
   Evisceration Plague

ok i posted a bass tab for this a while ago and it was the FIRST TAB ever for this song 
ug. check it out if you play bass too. I make sure all my tabs are correct,so believe me 
is 100%

                                           .=palm mute
Tuning (from low to high)                  tr=tremelo pick
Bb Eb Ab Db F Bb                           h=hammer on
                                           p=pull off
-------------------------------------------------------------------|
---11---11/15-13-12--11/13-15--17-15-13----11/13--15-13\12--10\5---|
-------------------------------------------------------------------|
-------------------------------------------------------------------|
-------------------------------------------------------------------|
-------------------------------------------------------------------|

-------------------20-19-18-18--18--18\------------------------------|
---5---5/18-17-15------------------------11h12tr--------12h13tr-(13)-|
--------------------------------------------------10-x---------------|
---------------------------------------------------------------------|
---------------------------------------------------------------------|
---------------------------------------------------------------------|

-----------------------------------------------------6tr-(6)--------|
---10-8-10--0-6-8-10-8-6--(8)-(6)--5-(5)tr--6-5\3-0-----------------|
--------------------------------------------------------------------|
--------------------------------------------------------------------|
--------------------------------------------------------------------|
---------------------------------------------------------------/15\-|

--------------------------------------------------------------------------|
--------------------------------------------------------------------------|
-------------------------------------------9---------12-12-14--12-11-12---|
-------------------------8----------8-9-10---10-8-9-----------------------|
----------7-------7-8-10---10-8-10----------------------------------------|
---6-8-10---10-8----------------------------------------------------------|
   . . .  . .  .  . . .  . .  . .   . . . .  .  . .  .  .  .   .  .   .

-----------12------------------12--------------12-13--15p13p12------------|
---11-12-13----13-12-11-12--13----13-12--12-13------------------13-11-13--|
--------------------------------------------------------------------------|
--------------------------------------------------------------------------|
--------------------------------------------------------------------------|
--------------------------------------------------------------------------|
  .   .  .  .  .  .  .  .   .  .  .  .    .  .                  .  .   .

---12-13--15p13p12------------15-15--18p15------------15-18--20p18p15----|
--------------------14-11-14----------------17--15-17-----------------17-|
-------------------------------------------------------------------------|
-------------------------------------------------------------------------|
-------------------------------------------------------------------------|
-------------------------------------------------------------------------|
                    .  .  .

------------18--20p18-15----15-17-19--20\18-15-----15-17-19--20\18-15--|
---18-19-20--------------17---------------------17---------------------|
-----------------------------------------------------------------------|
-----------------------------------------------------------------------|
-----------------------------------------------------------------------|
-----------------------------------------------------------------------|

--------------------------------------------------------------------|
---19-18-17--18h20p18--(18)-17-15h17p15---------15h18p15------------|
-----------------------------------------17-15------------17-15-17--|
--------------------------------------------------------------------|
--------------------------------------------------------------------|
--------------------------------------------------------------------|

-----------------------------------------------------------------|
---15h20p15------------15h18p15------------15h17p15-----14-17tr--|
-------------17-15-17------------17-15-17------------17----------|
-----------------------------------------------------------------|
-----------------------------------------------------------------|
-----------------------------------------------------------------|

goddamn this took a long time
Добавлено: 01.07.2012
Другие материалы по этой песне:

Страница создана 29.04.2012
http://primanota.ru/cannibal-corpse/a-cauldron-of-hate-chords.htm
Привет, Гость.
Предлагаем пройти революционный курс по гитаре.
Подарок от PrimaNota.Ru, забирай!