PrimaNota.ru - самый крупный в мире бесплатный архив песенных текстов, аккордов, табулатур и нот


The Candymen - Sentimental Lady - бас-таба, видео

Регистрация Запомнить меня
Войти через:  Facebook Google Twitter Vk Yandex Mail.ru

The Candymen - Sentimental Lady - бас-таба, видео

Печатать
Просмотров: 118
Уроки эстрадного вокала в Санкт-Петербурге
Tabbed by: 6METAL6BASSIST6
E-mail: petergriffinav@gmail.com

Tuning: EADG

G|----------------------------------------------------------------|
D|----------------------------------------------------------------|
A|----------------------------------------------------------------|
E|----------------------------------------------------------------|

G|----------------------------------------------------------------|
D|5-----------4---------------------------------------------------| x2
A|------------------------7-------5-------------------------------|
E|----------------------------------------------------------------|

G|--------------------------------------------------------------/-|
D|----------------------------------------------------------------|
A|----------------------------------------------------------------|
E|----------------------------------------------------------------|

G|14----------12------11------7-----------------------------------|
D|------------------------------------------------------/-7-------|
A|--------------------------------5-------------------------------|
E|----------------------------------------------------------------|

0:22

G|----------------------------------------------------------------|
D|----------------7-----------7-------------------7-----------7---| x2
A|5-----------5-------------------5-----------5-------------------|
E|----------------------------------------------------------------|

G|----------------------------------------------------------------|
D|----------------7-----------7-------------------7---------------|
A|5-----------5-------------------5-----------5-------------------|
E|----------------------------------------------------------------|

G|----------------------------------------------------------------|
D|5-------4-------------------------------4-------5-------6-------|
A|----------------7-------5-------3-------------------------------|
E|----------------------------------------------------------------|

G|--------------------------------|
D|--------------------------------|
A|0-------2-------3-------4-------|
E|--------------------------------|

0:41

G|----------------------------------------------------------------|
D|5-----------5---5-----------5---7-----------7---7---------------|
A|----------------------------------------------------------------|
E|----------------------------------------------------------------|

G|----------------------------------------------------------------|
D|5-----------4-----------------------------------------------4---|
A|------------------------7-------5-----------5---5---------------|
E|----------------------------------------------------------------|

G|----------------------------------------------------------------|
D|5-----------4---------------------------------------------------|
A|------------------------7-------5-----------5---5---------------|
E|----------------------------------------------------------------|

G|----------------------------------------------------------------|
D|----------------------------6---7-----------7---7-----------7---|
A|7-----------7---7-----------------------------------------------|
E|----------------------------------------------------------------|

0:58

G|----------------------------------------------------------------|
D|5-----------5---5-----------5---7-----------7---7---------------|
A|----------------------------------------------------------------|
E|----------------------------------------------------------------|

G|----------------------------------------------------------------|
D|5-----------4-----------------------------------------------4---|
A|------------------------7-------5-----------5---5---------------|
E|----------------------------------------------------------------|

G|----------------------------------------------------------------|
D|5-----------4---------------------------------------------------|
A|------------------------7-------5-----------5---5---------------|
E|----------------------------------------------------------------|

G|--------------------------------------------------------------/-|
D|----------------------------------------------------------------|
A|7-----------7---7-----------------------------------------------|
E|--------------------------------5-----------5---5---------------|

G|14----------12------11------7-----------------------------------|
D|------------------------------------------------------/-7-------|
A|--------------------------------5-------------------------------|
E|----------------------------------------------------------------|

1:18

G|----------------------------------------------------------------|
D|----------------7-----------7-------------------7-----------7---| x2
A|5-----------5-------------------5-----------5-------------------|
E|----------------------------------------------------------------|

G|----------------------------------------------------------------|
D|----------------7-----------7-------------------7---------------|
A|5-----------5-------------------5-----------5-------------------|
E|----------------------------------------------------------------|

G|----------------------------------------------------------------|
D|5-------4-------------------------------4-------5-------6-------|
A|----------------7-------5-------3-------------------------------|
E|----------------------------------------------------------------|

G|--------------------------------|
D|--------------------------------|
A|0-------2-------3-------4-------|
E|--------------------------------|

1:37

G|----------------------------------------------------------------|
D|5-----------5---5-----------------------------------------------|
A|----------------------------------------------------------------|
E|----------------------------3---5-----------5---5-----------5---|

G|----------------------------------------------------------------|
D|5-----------4-----------------------------------------------4---|
A|------------------------7-------5-----------5---5---------------|
E|----------------------------------------------------------------|

G|----------------------------------------------------------------|
D|5-----------4---------------------------------------------------|
A|------------------------7-------5-----------5---5---------------|
E|----------------------------------------------------------------|

G|----------------------------------------------------------------|
D|----------------------------6---7-----------7---7-----------7---|
A|7-----------7---7-----------------------------------------------|
E|----------------------------------------------------------------|

1:54

G|----------------------------------------------------------------|
D|5-----------5---5-----------5---7-----------7---7-----------7---|
A|----------------------------------------------------------------|
E|----------------------------------------------------------------|

G|----------------------------------------------------------------|
D|5-----------4-----------------------------------------------4---|
A|------------------------7-------5-----------5---5---------------|
E|----------------------------------------------------------------|

G|----------------------------------------------------------------|
D|5-----------4---------------------------------------------------|
A|------------------------7-------5-----------5---5---------------|
E|----------------------------------------------------------------|

G|----------------------------------------------------------------|
D|----------------------------------------------------------------|
A|7-----------7---7-----------------------------------------------|
E|--------------------------------5-----------5---5---------------|

G|------------------------------/-14----------12------11------7---|
D|----------------------------------------------------------------|
A|----------------------------------------------------------------|
E|5-----------5---5-----------------------------------------------|

G|--------------------------------|
D|--------------------------------|
A|5-------------------------------|
E|--------------------------------|
Добавлено: 25.06.2016
Вам также может быть интересно:
Другие материалы по этой песне:
  • Аккорды и текст

Страница создана 25.06.2016
http://primanota.ru/candymen/sentimental-lady-chords.htm
Привет, Гость.
Предлагаем пройти революционный курс по гитаре.
Подарок от PrimaNota.Ru, забирай!