PrimaNota.ru - самый крупный в мире бесплатный архив песенных текстов, аккордов, табулатур и нот


Candlemass - Waterwitch - таба, видео

Регистрация Запомнить меня
Войти через:  Facebook Google Twitter Vk Yandex Mail.ru

Candlemass - Waterwitch - таба, видео

Печатать
Просмотров: 108
-------------------------------------------------------------------------------
                          -=[Waterwitch - Candlemass]=-
-------------------------------------------------------------------------------
Song: Waterwitch
Band: Candlemass
Album: Psalms for the Dead
Tabbed by: TrollFaceJesus
E-mail: trollfacejesus@gmail.com


Hey everyone, this is my tab for this song. It sounds pretty accurate to me, 
and hopefully you guys find it helpful! If you have any questions or comments, 
please feel free to leave a message! :D


Tuning: C#


Riff 1 (Starts at 0:00)
|--------------------------------------------------|
|--------------------------------------------------|
|--------------------------------------------------| x4
|--------------------------------------------------|
|------------------10--9---------------------------|
|--0---8-0-7---0-----0----0---8-0-7---0--3--2--1---|

[Note: In this song, one guitar plays this riff with wah and 
distortion, while the other plays the same notes, but with 
chords and only distortion. You can change this in any way 
that you want to get the sound you prefer, of course.]


Bass Break (Starting at 0:42)
|-------------|
|-------------| x2
|-------2--3--|
|--0----------|


Riff 2 (Starting at 0:51)
|--------------|
|-------------|
|-------------|
|-------------| x6
|-------2--3--|
|--0----------|


Riff 3 (Starting at 1:15)
|---------------------------------------|
|---------------------------------------|
|---------------------------------------| x2
|-----------------------5------------2--|
|--2--3---7---6-----2--------3---2---2--|
|--0--1-----8---7---0------2---1-----0--|


Bass Break x 2

Riff 2 x 6

Riff 3 x 4


Riff 4 (Starting at 2:31)
|---------------------------------------|
|---------------------------------------|
|--5---4----7---9-----------------------| x1
|--5---4----7---9------------------2----|
|--3---2----5---7------5---3---2---2----|
|--------------------3---2---1-----0----|


Riff 5 (Starting at 2:42)
|--------------------------------------------------------|
|--------------------------------------------------------|
|--2--2-------------------------2--2---------------------| x4
|--2--2---3---3--2---2--1---1---2--2---3---3--2---2--1---|
|--0--0-----3------2------1-----0--0-----3------2--------|
|--------------------------------------------------------|


Riff 6 (Starting at 3:16)
|-------------------------------|
|-------------------------------|
|-------------------------------| x4
|--4--4---7-7---6-6--6----------|
|--4--4---7-7---6-6--6---5-0-5--|
|--2--2---5-5---4-4--4----------|


Riff 1 x 4

Bass Break x 2

Riff 2 x 6


Riff 7 (Starting at 5:02)
|-------------------------------------|
|-------------------------------------|
|-------------------------------------| x8
|--2--2--------------2--2-------2tr3--|
|--2--2-----2--------2--2-----2-------|
|--0--0---3---2--1---0--0---3---------|


Then just play Riff 3 until the end of the song.

And that's it! Hopefully you guys have found this tab helpful.


If you guys have questions, comments, or corrections, don't
hesitate to leave a message! :D


************************************

| /   slide up
| \   slide down
| h   hammer-on
| p   pull-off
| ~   vibrato
| +   harmonic
| x   Mute note
| b   Bend
| pb  Pre-bend
| br  Bend release
| pbr Pre-bend release
| brb Bend release bend

************************************
Добавлено: 06.12.2013
Другие материалы по этой песне:
  • Аккорды и текст

Страница создана 06.12.2013
http://primanota.ru/candlemass/waterwitch-chords.htm
Привет, Гость.
Предлагаем пройти революционный курс по гитаре.
Подарок от PrimaNota.Ru, забирай!