PrimaNota.ru - самый крупный в мире бесплатный архив песенных текстов, аккордов, табулатур и нот


Candlemass - Prologue - таба, видео

Регистрация Запомнить меня
Войти через:  Facebook Google Twitter Vk Yandex Mail.ru

Candlemass - Prologue - таба, видео

Печатать
Просмотров: 81
Riff 1:

D|-----------------------------------------------------------------|
A|-------5-4-5-4---------5-4-5-4---------1-4-1-----------1-4-1-----|
F|-----6---------------6---------------2-------2-------2-------2---|   x3
C|---6-----------6---6-----------6---2-----------2---2-----------2-|
G|-4---------------4---------------0---------------0---------------|
D|-----------------------------------------------------------------|

Riff 2:

D|---------------------------------|
A|-----2---------------0-----------|
F|-------4-------2-------2---------|   x2
C|---4---------3-----2-----------4-|
G|-2---------3-----0-----------6---|
D|---------1---------------0-6-----|

Outro:

D|----------------------------|
A|----------------------------|
F|----------------------------|
C|----------4---------------4-|
G|-------6--------------6-----|
D|-0--6---------0---6---------|
Добавлено: 21.11.2015
Другие материалы по этой песне:

Страница создана 01.10.2013
http://primanota.ru/candlemass/prologue-chords.htm
Привет, Гость.
Предлагаем пройти революционный курс по гитаре.
Подарок от PrimaNota.Ru, забирай!