PrimaNota.ru - самый крупный в мире бесплатный архив песенных текстов, аккордов, табулатур и нот


Candlemass - Cyclo-f - текст песни, таба, видео

Регистрация Запомнить меня
Войти через:  Facebook Google Twitter Vk Yandex Mail.ru

Candlemass - Cyclo-f - текст песни, таба, видео

Печатать
Просмотров: 193
Уроки эстрадного вокала в Санкт-Петербурге
-----------------------------------------------------------------------------
                             Cyclo-F - Candlemass
-----------------------------------------------------------------------------
Tabbed by: Running_Dogg
Email: onlycrims@gmail.com

Tuning: one step down (D tunning)

This is my first tab so I hope you guys will apreciate it
Song is pretty easy anyway


-------------------------------
Intro 1 (both)
-------------------------------
Play it 4 times, both guitars play the same riff except the bend ending at 2nd and 4th time

       Both guitars       |    Second guitar play this alternate ending
e|------------------------|-------------------------------------------------|
B|------------------------|-------------------------------------------------|
G|------------------------|---------7b--------------------------------------|
D|--7-7------------5-7-8~-|-----5-7-----------------------------------------|
A|--5-5-7-6-5-6-7--3-5-6~-|-----3-5-----------------------------------------|
E|------5-4-3-4-5---------|-------------------------------------------------|

-------------------------------
Intro 2 (both)
-------------------------------
Also play it 4 times, and as above only ending is differend for second guitar at 2nd and 4th time

      Both guitars       |  Second guitar play this alternate ending
e|-----------------------|--------------------------------------------------|
B|-----------------------|--------------------------------------------------|
G|-----------------------|--------------------------------------------------|
D|-----------------------|-----------7b-------------------------------------|
A|-7-7------------5-7-8~-|-------5-7----------------------------------------|
E|-5-5--0-2-1-0-1-3-5-6~-|-------3-5----------------------------------------|
        . . . . .

-------------------------------
Verse riff rhytm (1st guitar)
-------------------------------
End the intro riff with power chord, let it ring
Play the bass line on a muted strings
After first verse hit the power chord again
Play this multiple times till the drums solo kicks in

   P Chord            Cool doomy Bass line
e|--------|-----------------------------------------------------------------|
B|--------|-----------------------------------------------------------------|
G|--------|-----------------------------------------------------------------|
D|-5(5)---|-----------------------------------------------------------------|
A|-5(5)---|-----------------------------------------------------------------|
E|-3(3)---|------2h3--3~---2-3-6-2------------------------------------------|
                 . .       . . .

-------------------------------
Verse lead (2nd guitar)
-------------------------------
A lot of vibrato, bending, delay and reverb here
You can also use whammy bar or wah effect, then play around those notes at the beggining 
of each verse after power chord
Pinch it a little

e|--------------------------------------------------------------------------|
B|--------------------------------------------------------------------------|
G|--------------------(5)~~~-----(7)----------------------------------------|
D|-------(5)~~~~~~----------------------------------------------------------|
A|--------------------------------------------------------------------------|
E|--------------------------------------------------------------------------|

After drums solo play the whole thing again

-----------Intro 1-|
-----------Intro 2-|
-------------------|Verse riff and lead



After the "where you end the pain" and the last power chord rhytm guitar play the same 
line over and over

Lead is messing around with reverb, delay and wah effect
Its just a jam I guess, so I suggest to feel the drums and rhytm and improvise too

-------------------------------
Outro (both)
-------------------------------
After a long "solo", about at 7:40 both play this cool riff
Play the outro multiple times


  main riff transforms in  |  outro, try to feel the beating     | ending
e|-------------------------|-------------------------------------|----------|
B|-------------------------|-------------------------------------|----------|
G|-------------------------|-------------------------------------|----------|
D|-------------------------|-------------------------------------|----------|
A|-------------------------|----5---5-----5---5------------------|----------|
E|-2h3--3~--2-3-6--2-------|2/3-3-3-3-3-3-3-3-3-3-3-3-6-2-2-2----|2/3~~~~---|
   . .      . . .                 .   . .   .


************************************

| /   slide up
| \   slide down
| h   hammer-on
| p   pull-off
| ~   vibrato
| +   harmonic
| x   Mute note
| b   Bend
| pb  Pre-bend
| br  Bend release
| pbr Pre-bend release
| brb Bend release bend

************************************
Добавлено: 04.03.2012
Другие материалы по этой песне:
  • Аккорды и текст

Страница создана 04.03.2012
http://primanota.ru/candlemass/cyclo-f-chords.htm
Привет, Гость.
Предлагаем пройти революционный курс по гитаре.
Подарок от PrimaNota.Ru, забирай!