PrimaNota.ru - самый крупный в мире бесплатный архив песенных текстов, аккордов, табулатур и нот


Candlebox - So Real - текст песни, таба, видео

Регистрация Запомнить меня
Войти через:  Facebook Google Twitter Vk Yandex Mail.ru

Candlebox - So Real - текст песни, таба, видео

Печатать
Просмотров: 132
Авторы музыки: Candlebox
Авторы текста: Candlebox
From: "KJ SCHMITT" 
Subject: c/candlebox/so_real.tab
Date: Thu, 22 Oct 1998 20:07:29 PDT

This is my tab for the Candlebox song "So Real" off of Happy Pills.
Please send any comments or corrections to slmcclure@bsu.edu
The song is in standard tuning.

Intro/Verse:

e-------------------|
B-------------------|
G-------3-------0-5-|
D-----5---5---------|
A---3-------3/5-----|
E-------------------|

Pre-Chorus: C5 D5 C5 D5, then play intro riff

Chorus:

e---------------------------------|
B---------------------------------|
G---------------------------------|
D---------------------------------|
A---3-3-3-3-3-1-1-1-1-1-5-5-5-5-5-|
E---------------------------------|
Добавлено: 27.06.2012
Другие материалы по этой песне:
  • Аккорды и текст

Страница создана 30.04.2012
http://primanota.ru/candlebox/so-real-chords.htm
Привет, Гость.
Предлагаем пройти революционный курс по гитаре.
Подарок от PrimaNota.Ru, забирай!