PrimaNota.ru - самый крупный в мире бесплатный архив песенных текстов, аккордов, табулатур и нот


Cancerslug - Curdled - таба, видео

Регистрация Запомнить меня
Войти через:  Facebook Google Twitter Vk Yandex Mail.ru

Cancerslug - Curdled - таба, видео

Печатать
Просмотров: 89
This Is Cancerslugs Song "Curdled"
this version is From Their Album "Tales Of A Butcher"
.= Palm Mute

Intro
D----------|
A----------|
F----------|
C-0-3-00-5-|
G-0-3-00-5-|
C-0-3-00-5-|
  .   ..
Verse x2
D-----------------------------------------------------------------|
A-----------------------------------------------------------------|
F-----------------------------------------------------------------|
C-0-5-0-5-0-5---0-5-0-3-5--0-5-0-5--0-5-3--0-2-0-2-0-2--0-5-2-0-2-|
G-0-5-0-5-0-5---0-5-0-3-5--0-5-0-5--0-5-3--0-2-0-2-0-2--0-5-2-0-2-|
C-0-5-0-5-0-5---0-5-0-3-5--0-5-0-5--0-5-3--0-2-0-2-0-2--0-5-2-0-2-|
  .   .   .     .   .      .   .    .      .   .   .    .     .
Chorus 1
D---------------------------------------------------------|
A---------------------------------------------------------|
F-5-----------------------------------------------5-------|
C-5x8-7----0-5-0-5-0-5--0-5-0-3-5--0-5-0-5-0-0-0--5x8-7---|
G-3---7x8--0-5-0-5-0-5--0-5-0-3-5--0-5-0-5-0-0-0--3---7x8-|
C-----7----0-5-0-5-0-5--0-5-0-3-5--0-5-0-5-0-0-0------7---|
           .   .   .    .   .      .   .   . . .
Pre-Verse
D------------------------|
A------------------------|
F------------------------|
C-0-5-0-5-0-5--0-5-0-3-5-|
G-0-5-0-5-0-5--0-5-0-3-5-|
C-0-5-0-5-0-5--0-5-0-3-5-|
  .   .   .    .   .
Verse Again

Chorus 2x2          Pre-Outro                     Outro(Play Fast)x5
D----------------   D---------------------------  D------------------|
A----------------   A---------------------------  A------------------|
F-5--------------   F---------------------------  F-5----------------|
C-5x8-7---5---2--   C-0-5-0-5-0-5---0-5-0-3-5~~~  C-5x8-7----5---2---|
G-3---7x8-5x8-2x8   G-0-5-0-5-0-5---0-5-0-3-5~~~  G-3---7x8--5x8-2x8-|
C-----7---5---2--   C-0-5-0-5-0-5---0-5-0-3-5~~~  C-----7----5---2---|
                      .   .   .     .   .
Добавлено: 16.11.2013
Другие материалы по этой песне:
  • Аккорды и текст

Страница создана 16.11.2013
http://primanota.ru/cancerslug/curdled-chords.htm
Привет, Гость.
Предлагаем пройти революционный курс по гитаре.
Подарок от PrimaNota.Ru, забирай!