PrimaNota.ru - самый крупный в мире бесплатный архив песенных текстов, аккордов, табулатур и нот


Cancer - Death Shall Rise - текст песни, таба, видео

Регистрация Запомнить меня
Войти через:  Facebook Google Twitter Vk Yandex Mail.ru

Cancer - Death Shall Rise - текст песни, таба, видео

Печатать
Просмотров: 203
Cancer-Death Shall Rise (1991)

                   Special Legend Key:


                  Bend Up-B^

                  Bend Down- bd



                 Tuning: ''D G C F A D'' (D-Standard

                 ht-Hammer On Tap

                 H-hammer on

                 P-Pull Off

                 Slide-/




The intro at 0:00 Is just to hard to figure out by ear but please send an email



Riff 1 0:15



D-----------------------------------|
A-----------------------------------|
F-----------------------------------|
C-----------------------------------|
G-------3---------3------2----3-----|
D--0---------1-------0-----1--------|


Repeat
,,, ,,, ,,, ,, ,, ,,,


0:49-1:04 Riff 2



D-------------------------------------------------------|
A-------------------------------------------------------|
F-------------------------------------------------------|
C-------------------------------------------------------|
G-----2/---------5bd------4/---3/------2/------5bd------|
D-0--------------------2/----1/---0---------------------|

,,, ,,, ,,, ,,, ,,, ,,, ,,, ,,,
Repeat


1:04 Riff 1


1:30 GR2 Riff 3



D-------------------------------|
A-------------------------------|
F-------------------------------|
C-------------------------------|
G------2------------------------|
D--0----------------------------|


1:40 Riff-4


D-----------------------|
A-----------------------|
F-----------------------|
C-----------------------|
G-------2---------------|
D--0--------------------|

... ... ... ... ... ... ,,, ,,, ,,, ,,, ,,, ,,,,


Slide Part 1:46-Riff-5


D--------------------------------------|
A--------------------------------------|
F--------------------------------------|
C-----------7/---6/--7/-----6----------|
G------5/------4/---5/---4-------------|
D--------------------------------------|


,,, ,,, ,,,



Riff-6-2:18

D--------------------------------------------------|
A--------------------------------------------------|
F--------------------------------------------------|
C---------4/-------5/------6/----------------------|
G-----2/-----3/-------4/-----------3/--------------|
D--------------------------------1/----------------|


2:30 Riff 7


D-------------------------------------|
A-------------------------------------|
F-------------------------------------|
C----------7/-----6/------5/--4-------|
G----5/-------4/-----3/---------------|
D-------------------------------------|
Repeat


At 2:36 The Riff Changes it's key


Solo It might not be right,But Just please send me an E-mail On Any Corrections


Not Take a listen to the solo first


Solo-2:57-3:21

D-----------------------------------------------------------------------------|
A-----------------------10b^--11b^/-------------------------------------------|
F----------12bd/----9--9b^-----------14ht15/--13ht14--12ht13--11ht12---11b^---|
C----------------------------------------------------------------------12b^---|
G-----------------------------------------------------------------------------|
D-----------------------------------------------------------------------------|


Sorry If the solo Is not right,But Please send comment for corrections,Or send me an E-mail


Intro starts again.



Riff 1 At 3:35


4:02 riff 3



4:14 Riff 2




4:37-5:43 Riff 4 (Solo Rythmn)


Sorry guy's, I hoped you liked it.

I listened to the song many many times. It may not be 100 Percent right. But Please Put 
the solo and Intro as A correction, Or To E-mail.

NOTE: Please send any Corrections on anything that is wrong

That's all :D
Добавлено: 12.10.2013
Другие материалы по этой песне:
  • Аккорды и текст

Страница создана 12.10.2013
http://primanota.ru/cancer/death-shall-rise-chords.htm
Привет, Гость.
Предлагаем пройти революционный курс по гитаре.
Подарок от PrimaNota.Ru, забирай!