PrimaNota.ru - самый крупный в мире бесплатный архив песенных текстов, аккордов, табулатур и нот


Cancer Bats - Road Sick - таба, видео

Регистрация Запомнить меня
Войти через:  Facebook Google Twitter Vk Yandex Mail.ru

Cancer Bats - Road Sick - таба, видео

Печатать
Просмотров: 100
Cancer Bats - Road Sick

Legend
------
~ Vibrato/hold
p pull off
h hammer on
/ slide
------

timing is from music video
Updated - just small changes, had some numbers in wrong places

Drop C

0:00-0:15
|----------------------------------------------------------------|
|----------------------------------------------------------------|
|----------------------------------------------------------------|
|--10--7-7-7-7-7-7-10--7-7-7-7-7-7-10--7-7-7-7-7-7--4/5-5-5/7-7--|x2
|--8---5-5-5-5-5-5-8---5-5-5-5-5-5-8---5-5-5-5-5-5--2/3-3-3/5-5--|
|----------------------------------------------------------------|

 0:15-0:32
|-------------------------------|
|-------------------------------|
|-------------------------------|
|-------------------------------|x3
|--8p5-5~---8p5-0h3-------3h5~--|
|-------------------0h3h5-------|

 0:32-0:36
|-------------------------------------------------------|
|-------------------------------------------------------|
|-------------------------------------------------------|
|-------------------------------------------------------|
|--8p5-5--5-5-5-5-5-5-5-5-5-5-5-5-5-5----8p5-0h3--------|
|------------------------------------------------0h3h5--|

 0:36-0:46
|----------------------------------------------------------|
|----------------------------------------------------------|
|----------------------------------------------------------|
|--------------7--7-7-7-7-7-7-8--8-8-8-8-8-8---------------|x2
|---------------------------------------------6-6-6-6-6h8--|
|--5-5-5-5-5-5---------------------------------------------|

 0:46-0:56
|----------------------------------------------------------------|
|----------------------------------------------------------------|
|----------------------------------------------------------------|
|--10--7-7-7-7-7-7-10--7-7-7-7-7-7-10--7-7-7-7-7-7--4/5-5-5/7-7--|x2
|--8---5-5-5-5-5-5-8---5-5-5-5-5-5-8---5-5-5-5-5-5--2/3-3-3/5-5--|
|----------------------------------------------------------------|

 0:56-1:13
|-------------------------------|
|-------------------------------|
|-------------------------------|
|-------------------------------|x3
|--8p5-5~---8p5-0h3-------3h5~--|
|-------------------0h3h5-------|

 1:13-1:16
|-------------------------------------------------------|
|-------------------------------------------------------|
|-------------------------------------------------------|
|-------------------------------------------------------|
|--8p5-5--5-5-5-5-5-5-5-5-5-5-5-5-5-5----8p5-0h3--------|
|------------------------------------------------0h3h5--|

 1:16-1:27
|----------------------------------------------------------|
|----------------------------------------------------------|
|----------------------------------------------------------|
|--------------7--7-7-7-7-7-7-8--8-8-8-8-8-8---------------|x2
|---------------------------------------------6-6-6-6-6h8--|
|--5-5-5-5-5-5---------------------------------------------|

 1:27-1:37
|----------------------------------------------------------------|
|----------------------------------------------------------------|
|----------------------------------------------------------------|
|--10--7-7-7-7-7-7-10--7-7-7-7-7-7-10--7-7-7-7-7-7--4/5-5-5/7-7--|
|--8---5-5-5-5-5-5-8---5-5-5-5-5-5-8---5-5-5-5-5-5--2/3-3-3/5-5--|
|----------------------------------------------------------------| 

|-----------------------------------------------------|
|-----------------------------------------------------|
|-----------------------------------------------------|
|--10--7-7-7-7-7-7-10--7-7-7-7-7-7-10--7-7-7-7-7-7-7--|
|--8---5-5-5-5-5-5-8---5-5-5-5-5-5-8---5-5-5-5-5-5-5--|
|-----------------------------------------------------| 

 1:39-1:49
(not right but my best shot)
|----------------------------------------------------------------|
|----------------------------------------------------------------|
|----------------------------------------------------------------|
|--13--13-13--13-13--13--13-13--13-13--8--8-8--8-8--8--8-8--8\7--|
|--10--10-10--10-10--10--10-10--10-10--6--6-6--6-6--6--6-6--6\5--|
|--10--10-10--10-10--10--10-10--10-10--6--6-6--6-6--6--6-6--6\5--|


|-------------------------------------------------------------|
|-------------------------------------------------------------|
|-------------------------------------------------------------|
|--13--13-13--13-13--13--13-13--13-13--8--8-8--8-8-8-8-8-8-8--|
|--10--10-10--10-10--10--10-10--10-10--6--6-6--6-6-6-6-6-6-6--|
|--10--10-10--10-10--10--10-10--10-10--6--6-6--6-6-6-6-6-6-6--|

1:50-2:00
  missing solo(its simple, but yet it eludes me)

 2:00-2:21
|----------------------------------------------------------|
|----------------------------------------------------------|
|----------------------------------------------------------|
|--------------7--7-7-7-7-7-7-8--8-8-8-8-8-8---------------|x4
|---------------------------------------------6-6-6-6-6h8--|
|--5-5-5-5-5-5---------------------------------------------|
 
 2:22-2:32
|----------------------------------------------------------------|
|----------------------------------------------------------------|
|----------------------------------------------------------------|
|--10--7-7-7-7-7-7-10--7-7-7-7-7-7-10--7-7-7-7-7-7--4/5-5-5/7-7--|x2
|--8---5-5-5-5-5-5-8---5-5-5-5-5-5-8---5-5-5-5-5-5--2/3-3-3/5-5--|
|----------------------------------------------------------------|

 2:32-2:53
|------------------------------------------------------------------|
|------------------------------------------------------------------|
|------------------------------------------------------------------|
|--3p0--0-0-0-0-0-0-3p0--0-0-0-0-0-0-3p0--0-0-0-0-0-0-4/5-5-5/7-7--|
|--3p0--0-0-0-0-0-0-3p0--0-0-0-0-0-0-3p0--0-0-0-0-0-0-2/3-3-3/5-5--|
|--3p0--0-0-0-0-0-0-3p0--0-0-0-0-0-0-3p0--0-0-0-0-0----------------|

|--------------------------------------------------------------------------|
|--------------------------------------------------------------------------|
|--------------------------------------------------------------------------|
|--3p0--0-0-0-0-0-0-3p0--0-0-0-0-0-0-3p0--0-0-0-0-0-0-4/5-5-5/7-7------0~--|
|--3p0--0-0-0-0-0-0-3p0--0-0-0-0-0-0-3p0--0-0-0-0-0-0-2/3-3-3/5-5--8p5-5~--|
|--3p0--0-0-0-0-0-0-3p0--0-0-0-0-0-0-3p0--0-0-0-0-0-0------------------0~--|
Добавлено: 08.08.2013
Вам также может быть интересно:
Другие материалы по этой песне:
  • Аккорды и текст

Страница создана 16.07.2013
http://primanota.ru/cancer-bats/road-sick-chords.htm
Привет, Гость.
Предлагаем пройти революционный курс по гитаре.
Подарок от PrimaNota.Ru, забирай!