PrimaNota.ru - самый крупный в мире бесплатный архив песенных текстов, аккордов, табулатур и нот


Cancer Bats - Regret - таба, видео

Регистрация Запомнить меня
Войти через:  Facebook Google Twitter Vk Yandex Mail.ru

Cancer Bats - Regret - таба, видео

Печатать
Просмотров: 136
                               CANCER BATS
                                  REGRET

Tabbed by: Revenge24
Email: from.the.earth.to.the.morgue@hotmail.com

Tuning: CGCFAD

I'm certain that most of this is correct, not 100% about the chorus though, seeing as 
very hard to hear. Very easy and fun to play, enjoy!


Intro:
e|--------------------------------------------------------------------------|
B|--------------------------------------------------------------------------|
G|--------------------------------------------------------------------------|
D|-xxxx--x-x--x-x--x--x--xx--x----------------------------------------------|
A|-xxxx--x-x--x-x--x--x--xx--x----------------------------------------------|
E|-xxxx--x-x--x-x--x--x--xx--x-----12\--------------------------------------|

Verse:
e|--------------------------------------------------------------------------|
B|--------------------------------------------------------------------------|
G|--------------------------------------------------------------------------|
D|--------------------------------------------------------------------------|
A|--------------------------------------------------------------------------|
E|--0--/6-5--5p0--6p0--6/8--0--/6-5--5p0--6p0--6/8--0--/6-5--5p0--6p0--6/8--|

e|--------------------------------------------------------------------------|
B|--------------------------------------------------------------------------|
G|--------------------------------------------------------------------------|
D|--------------------------------------------------------------------------|
A|--5h7--------3h5----------------------------------------------------------|
E|-------7-6--------5-3-----------------------------------------------------|

e|--------------------------------------------------------------------------|
B|--------------------------------------------------------------------------|
G|--------------------------------------------------------------------------|
D|--------------------------------------------------------------------------|
A|--------------------------------------------------------------------------|
E|--0--/6-5--5p0--6p0--6/8--0--/6-5--5p0--6p0--6/8--0--/6-5--5p0--6p0--6/8--|

e|--------------------------------------------------------------------------|
B|--------------------------------------------------------------------------|
G|--------------------------------------------------------------------------|
D|--------------------------------------------------------------------------|
A|--5h7--------3h5----------------------------------------------------------|
E|-------7-6--------5-3-----------------------------------------------------|

e|--------------------------------------------------------------------------|
B|--------------------------------------------------------------------------|
G|--------------------------------------------------------------------------|
D|--------------------------------------------------------------------------|
A|--------------------------------------------------------------------------|
E|--0--/6-5--5p0--6p0--6/8--0--/6-5--5p0--6p0--6/8--0--/6-5--5p0--6p0--6/8--|

e|--------------------------------------------------------------------------|
B|--------------------------------------------------------------------------|
G|--------------------------------------------------------------------------|
D|--------------------------------------------------------------------------|
A|--5h7--------3h5----------------------------------------------------------|
E|-------7-6--------5-3-----------------------------------------------------|

e|--------------------------------------------------------------------------|
B|--------------------------------------------------------------------------|
G|--------------------------------------------------------------------------|
D|--------------------------------------------------------------------------|
A|--5h7-------3h5-------5h7-------3h5-------5h7-------3h5-------------------|
E|-------7-6-------5-3-------7-6-------5-3-------7-6-------5-3--------------|

e|--------------------------------------------------------------------------|
B|--------------------------------------------------------------------------|
G|--------------------------------------------------------------------------|
D|-------------------3*--0--------------------------------------------------|
A|-------3*--0---3h5--------------------------------------------------------|
E|--3h5---------------------h7----------------------------------------------|

Pre-Chorus:
e|--------------------------------------------------------------------------|
B|--------------------------------------------------------------------------|
G|--------------------------------------------------------------------------|
D|-3/5-5-5--5/8-8-8--8\7-7-7--7\6-6-6---------------------------------------|
A|-3/5-5-5--5/8-8-8--8\7-7-7--7\6-6-6---------------------------------------|
E|-3/5-5-5--5/8-8-8--8\7-7-7--7\6-6-6---------------------------------------|

e|--------------------------------------------------------------------------|
B|--------------------------------------------------------------------------|
G|--------------------------------------------------------------------------|
D|-3/5-5-5--5/8-8-8--8/12-7-7--7/10-6-6-------------------------------------|
A|-3/5-5-5--5/8-8-8--8/12-7-7--7/10-6-6-------------------------------------|
E|-3/5-5-5--5/8-8-8--8/12-7-7--7/10-6-6-------------------------------------|

e|--------------------------------------------------------------------------|
B|--------------------------------------------------------------------------|
G|--------------------------------------------------------------------------|
D|-3/5-5-5--5/8-8-8--8\7-7-7--7\6-6-6---------------------------------------|
A|-3/5-5-5--5/8-8-8--8\7-7-7--7\6-6-6---------------------------------------|
E|-3/5-5-5--5/8-8-8--8\7-7-7--7\6-6-6---------------------------------------|

e|--------------------------------------------------------------------------|
B|--------------------------------------------------------------------------|
G|--------------------------------------------------------------------------|
D|-3/5-5-5--5/8-8-8--8/12-12-12-12------------------------------------------|
A|-3/5-5-5--5/8-8-8--8/12-12-12-12------------------------------------------|
E|-3/5-5-5--5/8-8-8--8/12-12-12-12------------------------------------------|

Chorus:
e|--------------------------------------------------------------------------|
B|--------------------------------------------------------------------------|
G|--------------------------------------------------------------------------|
D|--------------------------------------------------------------------------|
A|--------------------------------------------------------------------------|
E|-0-3-5-0-6-5-0--3-5-0-0-6-0-0-8~--0-3-5-0-6-5-0--3-5-0-0-6-0-0-8~---------|

e|--------------------------------------------------------------------------|
B|--------------------------------------------------------------------------|
G|--------------------------------------------------------------------------|
D|--------------------------------------------------------------------------|
A|--------------------------------------------------------------------------|
E|-0-3-5-0-6-5-0--3-5-0-0-6-0-0-8~--0-3-5-0-6-5-0--5-6-0-6-8-6-8--12~-------|

e|--------------------------------------------------------------------------|
B|--------------------------------------------------------------------------|
G|--------------------------------------------------------------------------|
D|--------------------------------------------------------------------------|
A|--------------------------------------------------------------------------|
E|-0-3-5-0-6-5-0--3-5-0-0-6-0-0-8~--0-3-5-0-6-5-0--3-5-0-0-6-0-0-8~---------|

e|--------------------------------------------------------------------------|
B|--------------------------------------------------------------------------|
G|--------------------------------------------------------------------------|
D|--------------------------------------------------------------------------|
A|--------------------------------------------------------------------------|
E|-0-3-5-0-6-5-0--3-5-0-0-6-0-0-8~--0-3-5-0-6-5-0--5-6-0-6-8-6-8--12~-------|

Verse 2:
e|--------------------------------------------------------------------------|
B|--------------------------------------------------------------------------|
G|--------------------------------------------------------------------------|
D|-xxxx--x-x--x-x--x--x--xx--x----------------------------------------------|
A|-xxxx--x-x--x-x--x--x--xx--x----------------------------------------------|
E|-xxxx--x-x--x-x--x--x--xx--x-----12\--------------------------------------|

e|--------------------------------------------------------------------------|
B|--------------------------------------------------------------------------|
G|--------------------------------------------------------------------------|
D|--------------------------------------------------------------------------|
A|--------------------------------------------------------------------------|
E|--0--/6-5--5p0--6p0--6/8--0--/6-5--5p0--6p0--6/8--0--/6-5--5p0--6p0--6/8--|

e|--------------------------------------------------------------------------|
B|--------------------------------------------------------------------------|
G|--------------------------------------------------------------------------|
D|--------------------------------------------------------------------------|
A|--5h7--------3h5----------------------------------------------------------|
E|-------7-6--------5-3-----------------------------------------------------|

e|--------------------------------------------------------------------------|
B|--------------------------------------------------------------------------|
G|--------------------------------------------------------------------------|
D|--------------------------------------------------------------------------|
A|--------------------------------------------------------------------------|
E|--0--/6-5--5p0--6p0--6/8--0--/6-5--5p0--6p0--6/8--0--/6-5--5p0--6p0--6/8--|

e|--------------------------------------------------------------------------|
B|--------------------------------------------------------------------------|
G|--------------------------------------------------------------------------|
D|--------------------------------------------------------------------------|
A|--5h7--------3h5----------------------------------------------------------|
E|-------7-6--------5-3-----------------------------------------------------|

e|--------------------------------------------------------------------------|
B|--------------------------------------------------------------------------|
G|--------------------------------------------------------------------------|
D|--------------------------------------------------------------------------|
A|--5h7-------3h5-------5h7-------3h5-------5h7-------3h5-------------------|
E|-------7-6-------5-3-------7-6-------5-3-------7-6-------5-3--------------|

e|--------------------------------------------------------------------------|
B|--------------------------------------------------------------------------|
G|--------------------------------------------------------------------------|
D|-------------------3*--0--------------------------------------------------|
A|-------3*--0---3h5--------------------------------------------------------|
E|--3h5---------------------h7----------------------------------------------|

Pre-Chorus:
e|--------------------------------------------------------------------------|
B|--------------------------------------------------------------------------|
G|--------------------------------------------------------------------------|
D|-3/5-5-5--5/8-8-8--8\7-7-7--7\6-6-6---------------------------------------|
A|-3/5-5-5--5/8-8-8--8\7-7-7--7\6-6-6---------------------------------------|
E|-3/5-5-5--5/8-8-8--8\7-7-7--7\6-6-6---------------------------------------|

e|--------------------------------------------------------------------------|
B|--------------------------------------------------------------------------|
G|--------------------------------------------------------------------------|
D|-3/5-5-5--5/8-8-8--8/12-7-7--7/10-6-6-------------------------------------|
A|-3/5-5-5--5/8-8-8--8/12-7-7--7/10-6-6-------------------------------------|
E|-3/5-5-5--5/8-8-8--8/12-7-7--7/10-6-6-------------------------------------|

e|--------------------------------------------------------------------------|
B|--------------------------------------------------------------------------|
G|--------------------------------------------------------------------------|
D|-3/5-5-5--5/8-8-8--8\7-7-7--7\6-6-6---------------------------------------|
A|-3/5-5-5--5/8-8-8--8\7-7-7--7\6-6-6---------------------------------------|
E|-3/5-5-5--5/8-8-8--8\7-7-7--7\6-6-6---------------------------------------|

e|--------------------------------------------------------------------------|
B|--------------------------------------------------------------------------|
G|--------------------------------------------------------------------------|
D|-3/5-5-5--5/8-8-8--8/12-12-12-12------------------------------------------|
A|-3/5-5-5--5/8-8-8--8/12-12-12-12------------------------------------------|
E|-3/5-5-5--5/8-8-8--8/12-12-12-12------------------------------------------|

Chorus:
e|--------------------------------------------------------------------------|
B|--------------------------------------------------------------------------|
G|--------------------------------------------------------------------------|
D|--------------------------------------------------------------------------|
A|--------------------------------------------------------------------------|
E|-0-3-5-0-6-5-0--3-5-0-0-6-0-0-8~--0-3-5-0-6-5-0--3-5-0-0-6-0-0-8~---------|

e|--------------------------------------------------------------------------|
B|--------------------------------------------------------------------------|
G|--------------------------------------------------------------------------|
D|--------------------------------------------------------------------------|
A|--------------------------------------------------------------------------|
E|-0-3-5-0-6-5-0--3-5-0-0-6-0-0-8~--0-3-5-0-6-5-0--5-6-0-6-8-6-8--12~-------|

e|--------------------------------------------------------------------------|
B|--------------------------------------------------------------------------|
G|--------------------------------------------------------------------------|
D|--------------------------------------------------------------------------|
A|--------------------------------------------------------------------------|
E|-0-3-5-0-6-5-0--3-5-0-0-6-0-0-8~--0-3-5-0-6-5-0--3-5-0-0-6-0-0-8~---------|

e|----------------------------------------------------------------------------|
B|----------------------------------------------------------------------------|
G|----------------------------------------------------------------------------|
D|----------------------------------------------------------------------------|
A|----------------------------------------------------------------------------|
E|-0-3-5-0-6-5-0--3-5-0-0-6-0-0-8~--0-3-5-0-6-5-0--5-6-0-6-8-6-8--12~---------|

Outro:
e|--------------------------------------------------------------------------|
B|--------------------------------------------------------------------------|
G|--------------------------------------------------------------------------|
D|-0------------------------------------------------------------------------|
A|-0------------------------------------------------------------------------|
E|-0------------------------------------------------------------------------|


| /  slide up
| \  slide down
| h  hammer-on
| p  pull-off
| ~  vibrato
| *  harmonic
| x  Mute note
===============================================================================
Добавлено: 04.07.2012
Другие материалы по этой песне:

Страница создана 18.03.2012
http://primanota.ru/cancer-bats/regret-chords.htm
Привет, Гость.
Предлагаем пройти революционный курс по гитаре.
Подарок от PrimaNota.Ru, забирай!