PrimaNota.ru - самый крупный в мире бесплатный архив песенных текстов, аккордов, табулатур и нот


Cancer Bats - Lucifers Rocking Chair - таба, видео

Регистрация Запомнить меня
Войти через:  Facebook Google Twitter Vk Yandex Mail.ru

Cancer Bats - Lucifers Rocking Chair - таба, видео

Печатать
Просмотров: 145
            A Great Song From Cancer Bats New Album. Hail Destroyer .

             This is also my first tab ever so. I think its right.

Drop C Tuning


Legend
. = Palm Mute
B = Bend
/ = Slide
h = Hammer on
p = Pull off

Riff A
|-----------------------------------------------------------------------------------------------|
|-----------------------------------------------------------------------------------------------|
|-----------------------------------------------------------------------------------------------|
|-0-7-7---0-7---0-7-7---0-7-7---0-7---0-7/8-7---0-7-7---0-7---0-7-7---0-10-10-10-10-10-12-12-0--|
|-0-5-5---0-5---0-5-5---0-5-5---0-5---0-5/6-5---0-5-5---0-5---0-5-5---0--8--8--8--8--8-10-10-0--|
|-0-------0-----0-------0-------0-----0---------0-------0-----0-------0----------------------0--|
  .       .     .       .       .     .         .       .     .       .

Riff B
|------------------------------|
|------------------------------|
|------------------------------|
|0-0--5--0--12/14-12-10-12-7-7-|
|0-0--5--0--10/12-10--8-10-5-5-|
|0-0--5--0---------------------|
 . .  B  .

Riff C
|------------------------------- |-------------------------|
|------------------------------- |-On the 8th time I think-|
|------------------------------- |-------------------------|
|0--10-8-7--0--10-8-7--0--5-7-7- |--0------5---5h7p5---5-7-|
|0---8-6-5--0---8-6-5--0--3-5-5- |--0--5h7---7-------7-----|
|0----------0----------0-------- |--0----------------------|
 .          .          .            .

Riff D (I'm not 100% On this part.Its kind of hard to hear.You can try and
                                                              Figure it out.)
|-------------------------------------------------------------------|
|-------------------------------------------------------------------|
|-------------------------------------------------------------------|
|-7-7-7-7-7-7-8-8-8-8-8-5-5-5-5-5-7-7-7-7-7-------------------------|Something like this
|-5-5-5-5-5-5-6-6-6-6-6-3-3-3-3-3-5-5-5-5-5-------------------------|
|-------------------------------------------------------------------|

Riff E/ Solo
|--------------------------------------------------------------|
|-20/22/20---18/20/18---18/20/18---15-15-15-15---15/18-15------|
|-19/21/19---17/19/17---17/19/17---14-14-14-14---14/17-14------|
|--------------------------------------------------------------|
|--------------------------------------------------------------|
|--------------------------------------------------------------|


|--------------------------------------------------------------|
|-20/22/20---18/20/18--22-22--15-15-15-18-15-15----------------|
|-19/21/19---17/19/17--21-21--14-14-14-17-14-14----------------|
|-----------------------B--B-----------------------------------|
|--------------------------------------------------------------|
|--------------------------------------------------------------|

Riff F
|-------------------------|--End it With This------------------------------|
|-------------------------|------------------------------------------------|
|-------------------------|------------------------------------------------|
|-0---10-10-10-10-12-7-7--|--0-0--12--0--12/14-12--10-12-12/7--------------|
|-0----8--8--8--8-10-5-5--|--0-0--10--0--10/12-10---8-10-10/5--------------|
|-0-----------------------|--0-0---B--0------------------------------------|
  .                          . .      .

    Song Order
     Riff A  4x
     Riff B  4x
     Riff C  8x
     Riff A  2x
     Riff B  4x
     Riff C  8x Without second part
     Riff D  I'm not too sure
     Riff E  2x
     Riff A  2x
     Riff F  8x Then End it                     Tabbed By: Craig Boyko
Добавлено: 17.05.2012
Другие материалы по этой песне:

Страница создана 21.03.2012
http://primanota.ru/cancer-bats/lucifers-rocking-chair-chords.htm
Привет, Гость.
Предлагаем пройти революционный курс по гитаре.
Подарок от PrimaNota.Ru, забирай!