PrimaNota.ru - самый крупный в мире бесплатный архив песенных текстов, аккордов, табулатур и нот


Campfire Girls - Buttercup - таба, бас-таба, видео

Регистрация Запомнить меня
Войти через:  Facebook Google Twitter Vk Yandex Mail.ru

Campfire Girls - Buttercup - таба, бас-таба, видео

Печатать
Просмотров: 93
The Campfire Girls
Buttercup
Delongpre
 
dehoedtc@central.edu
 
Tuning: Standard
 
Bass Line
G----------------------------------------------
D----------------------------------------------
A-------2-----------------9-9--9--12--9--12--9-
E--3-3----3--0-0--5--7-------------------------
 
Guitar â^À^Ó Verse
e----2---2------3---3------0---0------(h)2---2----
B------3---3------3---3------2---2---------2---2--
G-------------------------------------------------
D-------------------------------------------------
A-------------------------------------------------
E-------------------------------------------------
 
Chorus
e-----------------
B-----------------
G-----------7-----
D---4---7---7-----
A---4---7---5-----
E---2---5---------

     
Добавлено: 04.06.2013
Другие материалы по этой песне:
  • Аккорды и текст

Страница создана 04.06.2013
http://primanota.ru/campfire-girls/buttercup-chords.htm
Привет, Гость.
Предлагаем пройти революционный курс по гитаре.
Подарок от PrimaNota.Ru, забирай!